» » »

Symbol In My Driveway Tabs (ver.2)

Artists:  A B C D E F G H I J K L M N O P Q R S T U V W X Y Z # 

Symbol In My Driveway Tabs (ver.2)

Jack Johnson
Rating:
0/5 (0 votes)

Hard to play? Try these video lessons and learn fast.
                “Symbol in my Driveway”
Jack Johnson

Standard Tuning

|---------------------------------------------------------------------------------------|
|-----------------------------------0-0-0-0-0-0-0-0-0-0-0-0-0-0-0-----------------------|
|-----------------------------------4-4-6-4-4-4-6-4-4-4-6-4-4-4\3-3\2-2-4-2-2-2-4-2-2-2-|
|---2-2-4-2-2-2-4-2-2-2-4-2-2-2-4-2-------------------------------0-0-0-0-0-0-0-0-0-0-0-|
|---0-0-0-0-0-0-0-0-0-0-0-0-0-0-0-0-----------------------------------------------------|
|---------------------------------------------------------------------------------------|

|---------------------------------------------------------------------------------------|
|---------------------------------------------------------------------------------------|
|---4-2-2-2-4-2-----------------4-4-6-4-4-4-6-4-----------------------------------------|
|---0-0-0-0-0-0-2-2-4-2-2-2-4-2-0-0-0-0-0-0-0-0-----------------------------------------|
|---------------0-0-0-0-0-0-0-0---------------------------------------------------------|
|---------------------------------------------------------------------------------------|

Keep repeating until the end.  Then end on this…

|-------|
|-------|
|-------|
|---2---|
|---0---|
|-------|
            
Hard to play? Try these video lessons and learn fast. | Correct




comments powered by Disqus
↑ Back to top | Tablatures and chords are parodies/interpretations of the original songs. You may use it for private study, scholarship, research or language learning purposes only