» » »

Jack Johnson, Surf Song Tabs (ver.1)

Artists:  A B C D E F G H I J K L M N O P Q R S T U V W X Y Z # 

Surf Song Tabs (ver.1)

Jack Johnson Tabs
Rating:
0/5 (0 votes)
Surf Song lessons Tabs too difficult? Try these video lessons and learn fast
                Slide from chord to chord

C#m			F#			A			G#

 4			 1			 4			 4
e|---|-x-|---|---|	e|---|-x-|---|---|	e|---|-x-|---|---|	e|-x-|---|---|---|
b|---|-x-|-x-|---|	b|---|-x-|---|---|	b|---|-x-|---|---|	b|-x-|---|---|---|
g|---|---|---|-x-|	g|---|---|-x-|---|	g|---|---|-x-|---|	g|---|-x-|---|---|
D|---|---|---|-x-|	D|---|---|---|-x-|	D|---|---|---|-x-|	D|---|---|-x-|---|
A|---|---|---|---|	A|---|---|---|-x-|	A|---|---|---|-x-|	A|---|---|-x-|---|
E|---|---|---|---|	E|---|---|---|---|	E|---|---|---|---|	E|---|---|---|---|

the solo is :
e---------------------------------------------------------|
b---------------------------------------------------------|
g------------------4-----4--------------------------------|
D-------2--4--4/6-----6-----6/4--2-----------2------------|
A--2/4------------------------------4--2--4-----4---------|
E---------------------------------------------------------|


e---------------------------------------------------------|
b---------------------------------------------------------|
g------------------4-----4--4/6--4------------------------|
D-------2--4--4/6-----6-------------6/4--2----------------|
A--2/4--------------------------------------4-------------|
E---------------------------------------------------------|

e---------------------------------------------------------|
b---------------------------------------------------------|
g------------------4-----4--------------------------------|
D-------2--4--4/6-----6-----6/4--2-----------2--2h4--2----|
A--2/4------------------------------4--2--4---------------|
E---------------------------------------------------------|

e----------------------------------------------------------|
b----------------------------------------------------------|
g------------------4-----4--4/6--4----------------------4--|b
D-------2--4--4/6-----6-------------6/4--2--------2--4--4--|b
A--2/4--------------------------------------2--4-----------|
E----------------------------------------------------------|


┬ęDuncan Wick
            

comments powered by Disqus
↑ Back to top | Jack Johnson Tabs for Surf Song. Lyrics for acoustic guitar and electric guitar. Tablatures and chords are parodies/interpretations of the original songs. You may use it for private study, scholarship, research or language learning purposes only