» » »

Jack Johnson, Stars Tabs (ver.1)

Artists:  A B C D E F G H I J K L M N O P Q R S T U V W X Y Z # 

Stars Tabs (ver.1)

Jack Johnson Tabs
 Rating:
4/5 (4 votes)
Stars lessons Tabs too difficult? Try these video lessons and learn fast
                Tuning:Standard

Intro/Verse:
E---------------------------------------------------------------------------
B---------------------------------------------------------------------------
G---------------------------------------------------------------------------
D---------------------------------------------------------------------------
A---------------------------------------------------------------------------
E--4-4-4p3-6-4-3-1---4-4-4p3-6-4-3-1-8-888-888-888-8-888-888-888------------

Prechorus:
E---------------------------------------------------------------------------
B---------------------------------------------------------------------------
G--9--9--9--9--9--9--9--9--9--9----10-10-10-10-10-10-10-10-10-10------------
D--8--8--8--8--8--8--8--8--8--8----9--9--9--9--9--9--9--9--9--9-------------
A--10-10-10-10-10-10-10-10-10-10---11-11-11-11-11-11-11-11-11-11------------
E--8--8--8--8--8--8--8--8--8--8----9--9--9--9--9--9--9--9--9--9-------------

Chorus
E---------------------------------------------------------------------------
B---------------------------------------------------------------------------
G--9--9--9--7--7--7--7--5--5--5--4--4--4--4---------------------------------
D--10-10-10-8--8--8--8--6--6--6--5--5--5--5---------------------------------
A--10-10-10-8--8--8--8--6--6--6--5--5--5--5---------------------------------
E--8--8--8--6--6--6--6--4--4--4--3--3--3--3---------------------------------

E---------------------------------------------------------------------------
B---------------------------------------------------------------------------
G--2--2--2--4--4--4--4--5--5--5--7--7--7--7---------------------------------
D--3--3--3--5--5--5--5--6--6--6--8--8--8--8---------------------------------
A--3--3--3--5--5--5--5--6--6--6--8--8--8--8---------------------------------
E--1--1--1--3--3--3--3--4--4--4--6--6--6--6---------------------------------
            
Submit corrections

comments powered by Disqus
↑ Back to top | Jack Johnson Tabs for Stars. Lyrics for acoustic guitar and electric guitar. Tablatures and chords are parodies/interpretations of the original songs. You may use it for private study, scholarship, research or language learning purposes only