» » »

Sleep Through The Static Bass tabs (ver.1)

Artists:  A B C D E F G H I J K L M N O P Q R S T U V W X Y Z # 

Sleep Through The Static Bass tabs (ver.1)

Jack Johnson
Rating:
0/5 (0 votes)

Hard to play? Try these video lessons and learn fast.
                SLEEP THROUGH THE STATIC
By JACK JOHNSON

INTRO:
G|----------------------------------------------------|
D|----------------------------------------------------|
A|---------7------------7-7----7-7--7-8~-----8-8~--10-|
E|-8~--8-8---5~---5-5-3-----57------------68----------| x3

G|------------------------------------------------|
D|------------------------------------------------|
A|---------7------------7-7----7-7--7-8~--/10~----|
E|-8~--8-8---5~---5-5-3-----57--------------------|

- Short rest

CHORUS: x2
G|--------------------------|
D|--------------------------|
A|-------------8~-10~-------|
E|-8~-7~-5~-----------8~----|

- Verse

- Short Rest

- Chorus (x3)

OUTRO:(Verse with variations) x2
G|-------------------------------------------------|
D|-------------------------------------------------|
A|----7----7------------7~----7-7--7-8~----8-8--10-|
E|-8~--8-8---5~---5-5-53----57-----------68--------|
            
Hard to play? Try these video lessons and learn fast. | Correct




comments powered by Disqus
↑ Back to top | Tablatures and chords are parodies/interpretations of the original songs. You may use it for private study, scholarship, research or language learning purposes only