» » »

Sexy Plexi Bass tabs (ver.1)

Artists:  A B C D E F G H I J K L M N O P Q R S T U V W X Y Z # 

Sexy Plexi Bass tabs (ver.1)

Jack Johnson
Rating:
0/5 (0 votes)

Hard to play? Try these video lessons and learn fast.
                

VERSE 1
              4x
G|--------------|----------------|
D|--------------|----------------|
A|---4---2-2--2-|---4-------00-0-|
E|2-2--2----22--|2-2--2-33-3-----|


CHORUS
                2x
G|----------------|-----------------|
D|----------------|-----------------|
A|22-200-0--------|22-222-222-222-2-|
E|--------33-322-2|-----------------|


VERSE 2
              3x
G|--------------|----------------|
D|--------------|----------------|
A|---4---2-2--2-|---4-------00-0-|
E|2-2--2----22--|2-2--2-33-3-----|


CHORUS
                2x
G|----------------|-------|
D|----------------|-------|
A|22-200-0--------|2-2--2-|
E|--------33-322-2|---22--|


VERSE 3
              5x
G|--------------|----------------|
D|--------------|----------------|
A|---4---2-2--2-|---4-------00-0-|
E|2-2--2----22--|2-2--2-33-3-----|


CHORUS
                2x
G|----------------|--------|
D|----------------|--------|
A|22-200-0--------|2~~~~~~-|
E|--------33-322-2|--------|


~ = let ring
            
Hard to play? Try these video lessons and learn fast. | Correct




comments powered by Disqus
↑ Back to top | Tablatures and chords are parodies/interpretations of the original songs. You may use it for private study, scholarship, research or language learning purposes only