» » »

Jack Johnson, Questions Tabs (ver.3)

Artists:  A B C D E F G H I J K L M N O P Q R S T U V W X Y Z # 

Questions Tabs (ver.3)

Jack Johnson Tabs
Rating:
0/5 (0 votes)
Questions lessons Tabs too difficult? Try these video lessons and learn fast
                (Intro)
-------------------------------------------------------------------------------
                             Questions - Jack Johnson
-------------------------------------------------------------------------------

Tuning: Standard

e|--------------------------------------------------------------------------|
B|--------------------------------------------------------------------------|
G|---------------------------------------------4----------------------------|
D|---4h6--4---4h6--4--4h6p4-4--------------4-6---6-4---4--------------------|
A|-----------------------------6--4----4/6-----------6----------------------|
E|--------------------------------------------------------------------------|

e|--------------------------------------------------------------------------|
B|--------------------------------------------------------------------------|
G|---------------------------------------------4----------------------------|
D|---4h6--4---4h6--4--4h6p4-4--------------4-6---6-4---4--------------------|
A|-----------------------------6--4----4/6-----------6----------------------|
E|--------------------------------------------------------------------------|

e|--------------------------------------------------------------------------|
B|-------------------7-----7h9--7-----7h9--7--------------------------------|
G|--------4-----6h8----8----------8----------8------------------------------|
D|---4h6----6---------------------------------------------------------------|
A|--------------------------------------------------------------------------|
E|--------------------------------------------------------------------------|

e|---------------------------------------------------------------------------|
B|-------------------7-----7h9--7---7---9-7---7------------------------------|
G|--------4-----6h8----8----------8---8-----8--------------------------------|
D|---4h6----6----------------------------------------------------------------|
A|---------------------------------------------------------------------------|
E|---------------------------------------------------------------------------|


| /  slide up
| \  slide down
| h  hammer-on
| p  pull-off
| ~  vibrato
| +  harmonic
| x  Mute note
============================================================================
            
Submit corrections

comments powered by Disqus
↑ Back to top | Jack Johnson Tabs for Questions. Lyrics for acoustic guitar and electric guitar. Tablatures and chords are parodies/interpretations of the original songs. You may use it for private study, scholarship, research or language learning purposes only