>
 >
Questions 1

Questions 1 Guitar Tabs

Jack Johnson - Questions 1 chords, tabs, tablatures, lyrics

Guitar lessons | Add/correct | Request | Top 50 tabs Artists:  A B C D E F G H I J K L M N O P Q R S T U V W X Y Z 0-9

Questions 1 Guitar Tabs – Jack Johnson

CD, Sheet music, Poster

Do you like Questions 1? Share with your friends now
TabsTabs v2
Questions - Jack Johnson (curious George)


This tab is 99,9% correct..só falta o fim...

A minha 1a tab dedicada ao Luis Godinho, que é um ser preguicoso que nao se esforca pa 
guitarra. Só toca "Walk Away" pa
nao dar muito trabalho. Olha pó Melito cheio de amor á musica a dedicar-se.....quando 
no Natal quero esta merda
tocada!
Luis Godinho:"Viola é muito dificil, eu agora dedico-me é ao piano....só que nao 
nenhuma partitura pa tocar!"
ahahaha......esta é que era boa pa tocares ao piano....
Melito..dá-lhe que ultrapassas o sostra!....

Tuning: Standard

Capo 2nd (traste/fret)

b.= batida / hit the strings with r.hand

INTRO:

Frase base que se vai repetindo ao longo da música (com pequenas diferencas)

         b.     b.     b.               b.     b.
e|---------------------------------------------------------------------||
B|---------------------------------------------------------------------||
G|-------------------------------------------------------2-------------||
D|---2h4--2--2-----2h4--2--0h2p0--0-----------------2--4---4--2---2----||   2xs
A|---0----0------0-0----0-------4---2h4--2--2---2/4-------------4------||
E|----------------------------------0----0--------0--------------------||


         b.     b.     b.               b.     b.
e|----------------------------------------------------------------------|
B|----------------------5-----------5h7--5--------5h7--5-----(5)--------|
G|--------2-------/6-------6----------------6-------------6-------------|
D|---2h4-----4----------------------------------------------------------|
A|---0----0------0-0----0-----------------------------------------------|
E|--------------------------------0-0----0------0-0----0----------------|


         b.     b.     b.               b.     b.
e|----------------------------------------------------------------------|
B|----------------------5-----------5h7--5---(5)--5h7-5---5-------------|
G|--------2-------/6-------6----------------6-----------6--(6)----------|
D|---2h4-----4----------------------------------------------------------|
A|---0----0------0-0----0-----------------------------------------------|
E|--------------------------------0-0----0------0-0-------0-------------|


VERSE:

Jack:
"Questions, I've got some questions...I want to know you But what if I could ask you only

         b.     b.     b.               b.     b.
e|----------------------------------------------------------------------|
B|----------------------------------------------------------------------|
G|-------------------------------------------------------2--------------|
D|---2h4--2--2-----2h4--2--0h2p0--0-----------------2--4---4--2---2-----|
A|---0----0------0-0----0-------4---2h4--2--2---2/4-------------4-------|
E|----------------------------------0----0--------0---------------------|

  one thing Only this one time, what would you tell me Well maybe you could give me a su-

         b.     b.     b.               b.     b.
e|----------------------------------------------------------------------|
B|----------------------------------------------------------------------|
G|-----------4br-2---------------------------------------2--------------|
D|---2h4--2--------2h4--2--0h2p0--0-----------------2--4---4--2---2-----|
A|---0----0--------0----0-------4---2h4--2--2---2/4-------------4-------|
E|----------------------------------0----0--------0---------------------|

-gestion So I could know you, what would you tell me maybe you could tell me what to

         b.    b.     b.               b.     b.
e|----------------------------------------------------------------------|
B|----------------------------------------------------------------------|
G|-------------------------------------------------------2--------------|
D|---2h4--2--2-----2h4--2--0h2p0--0-----------------2--4---4--2---2-----|
A|---0----0------0-0----0-------4---2h4--2--2---2/4-------------4-------|
E|----------------------------------0----0--------0---------------------|

 ask you because then I’d know you, what would you tell me please tell me that there´s

         b.     b.     b.               b.     b.
e|----------------------------------------------------------------------|
B|----------------------------------------------------------------------|
G|----------------------------------------------------------------------|
D|---2h4--2--2-----2h4--2--0h2p0--0-------------------------------------|
A|---0----0------0-0----0-------4---2h4--2--2---0-2h4--2--2-------------|
E|----------------------------------0----0--------0----0----------------|


 time to make this work for all intents and purposes and what are your intentions
         b.     b.     b.     b.
e|----------------------------------------------------------------------|
B|----------------------------------------------------------------------|
G|---2h4--2-------------------------6\4-4\2-2---------------------------|
D|---0----0-------------4h6--4----------------4-4\2-2-0h2p0-0-----2-----|
A|----------------------------------0----------------------4--2h4-------|
E|---------------0-0----0-----------------------------------------------|


Will you try....
         b.     b.     b.               b.     b.
e|----------------------------------------------------------------------|
B|----------------------5----5------5h7--5----5---5h7--5----5-----------|
G|--------2----2--/6------6-----------------6-------------6-------------|
D|---2h4-----4----------------------------------------------------------|
A|---0----0------0-0----0-----------------------------------------------|
E|--------------------------------0-0----0------0-0----0----------------|


         b.     b.     b.               b.     b.
e|----------------------------------------------------5-----------------|
B|----------------------5----5------5h7--5----5---5h7---7-5----5--------|
G|--------2----2--/6-------6----------------6----------------6----------|
D|---2h4-----4----------------------------------------------------------|
A|---0----0------0-0----0-----------------------------------------------|
E|--------------------------------0-0----0------0-0-------0-------------|


SOLO:
         b.     b.     b.     b.               b.
e|-------------------------5--------5h7p5-------------------------------|
B|-------------------5-/7----------------7-5----------------------------|
G|--------2-------/6--------------------------------6\4-2\1--1h2p1------|
D|---2h4-----4----------------------------------------------------2-0---|
A|---0----0------0-0----0---------------------------------------------4-|
E|--------------------------------0-0------0------0-0----0--------------|


         b.     b.     b.     b.               b.
e|-------------------------5---------------2h4p2p0--5-4-2---------------|
B|-------------------5-/7---------------------------------5-3p2---------|
G|--------2-------/6--------------------------------------------4-2-----|
D|---2h4-----4----------------------------------------------------------|
A|---0----0------0-0----0-----------------------------------------------|
E|--------------------------------0-0------0------0-0-------0-----------|


Impressions, you’ve made impressions they’re going nowhere they’re just going to wait 
if you

         b.     b.     b.               b.     b.
e|---------------------------------------------------------------------|
B|---------------------------------------------------------------------|
G|-------------------------------------------------------2-------------|
D|---2h4--2--2-----2h4--2--0h2p0--0-----------------2--4---4--2---2----|
A|---0----0------0-0----0-------4---2h4--2--2---2/4-------------4------|
E|----------------------------------0----0--------0--------------------|

let them please don’t let them I want to know you and if they’re going to haunt me 
col-

         b.     b.     b.               b.     b.
e|---------------------------------------------------------------------|
B|---------------------------------------------------------------------|
G|-------------------------------------------------------2-------------|
D|---2h4--2--2-----2h4--2--0h2p0--0-----------------2--4---4--2---2----|
A|---0----0------0-0----0-------4---2h4--2--2---2/4-------------4------|
E|----------------------------------0----0--------0--------------------|

-lect them please just collect them  and now I’m begging I’m begging you to ask me just one

        b.     b.     b.               b.     b.
e|---------------------------------------------------------------------|
B|---------------------------------------------------------------------|
G|-------------------------------------------------------2-------------|
D|---2h4--2--2-----2h4--2--0h2p0--0-----------------2--4---4--2---2----|
A|---0----0------0-0----0-------4---2h4--2--2---2/4-------------4------|
E|----------------------------------0----0--------0--------------------|

question one simple question because then you’d know me I’ll tell you that there’s

        b.     b.     b.               b.     b.
e|---------------------------------------------------------------------|
B|---------------------------------------------------------------------|
G|---------------------------------------------------------------------|
D|---2h4--2--2-----2h4--2--0h2p0--0------------------------------------|
A|---0----0------0-0----0-------4---2h4--2--2---0-2h4--2--2------------|
E|----------------------------------0----0--------0----0---------------|

time to make this work for all intents and purposes at least for my own

         b.     b.     b.     b.
e|----------------------------------------------------------------------|
B|----------------------------------------------------------------------|
G|---2h4--2-------------------------6\4-4\2-2---------------------------|
D|---0----0-------------4h6--4----------------4-4\2-2--4--2---4---------|
A|----------------------------------0-----------------------4-----------|
E|---------------0-0----0-----------------------------------------------|

What is a heart worth if it’s just left all alone

e|-----------------------------------------|
B|-----------------------------------------|
G|---6\4-4\2-2-----------------------------|
D|------------4-4\2-2--4--2---4------------|
A|--------------------------4--------------|
E|-----------------------------------------|

Leave it long enough and watch it turn into stone

e|-----------------------------------------|
B|-----------------------------------------|
G|---6\4-4\2-2-----------------------------|
D|------------4-4\2-2--4--2---4------------|
A|--------------------------4--------------|
E|-----------------------------------------|

Why must we always be untrue

 Piano...................        b.     b.     b.               b.     b.
                         e|---------------------------------------------------------------------||
                         B|---------------------------------------------------------------------||
                         G|-------------------------------------------------------2-------------||
                         D|---2h4--2--2-----2h4--2--0h2p0--0-----------------2--4---4--2---2----||
                         A|---0----0------0-0----0-------4---2h4--2--2---2/4-------------4------||
                         E|----------------------------------0----0--------0--------------------||

be untrue....

          b.     b.     b.               b.     b.
e|---------------------------------------------------------------------||
B|---------------------------------------------------------------------||
G|---------------------------------------------------4--4h6--4-6-------||
D|---2h4--2--2-----2h4--2--0h2p0--0---------------2/4------------4-----||
A|---0----0------0-0----0-------4---2h4--2--2--------------------------||
E|----------------------------------0----0-----------------------------||


         b.     b.     b.               b.     b.
e|----------------------------------------------------5---5-------------|
B|----------------------5-----------5h7--5--------5h7---7---(5)---------|
G|--------2-------/6-------6----------------6---------------------------|
D|---2h4-----4----------------------------------------------------------|
A|---0----0------0-0----0-----------------------------------------------|
E|--------------------------------0-0----0------0-0-------0-------------|


este finzinho n consigo...tou há 42 minutos com a coluna ao pé do ouvido e tenho que 
se nao vomito de tantas questions.....





Comments


Popular Jack Johnson tabs & chords
Better Together 3 Chords
If I Had Eyes Chords
Monsoon 4 Chords
Imagine 1 Tabs
In The Morning Tabs
Pirate Looks At 40 1 Tabs
Wasting Time 1 Tabs
You And Your Heart Intro 2 Tabs
Upside Down Intro Ukulele
Were Going To Be Friends Ukulele


Song lyrics



↑ Back to top | Tablatures and chords are parodies/interpretations of the original songs. You may use it for private study, scholarship, research or language learning purposes only
© 2014 AZChords.com Contact us | Privacy policy | DMCA | Add/correct tabs | Request tabs | Top 50 tabs