» » »

Jack Johnson, Mud Football Bass tabs (ver.1)

Artists:  A B C D E F G H I J K L M N O P Q R S T U V W X Y Z # 

Mud Football Bass tabs (ver.1)

Jack Johnson Tabs
Rating:
0/5 (0 votes)
Mud Football lessons Tabs too difficult? Try these video lessons and learn fast
                Bassist: Merlo Podlewski
Tuning: Standard (EADG)

Guitar Intro :  0:00-00:20

Verse : (8 bars) 00:20
G--------------57-|----------5---6-|7-----77--------|7-----77--------|
D-----------------|----------------|--------------7-|----------7---6-|
A-----------------|----------------|----------------|----------------|
E-3-----33--------|3-----33--------|----------------|----------------|
  1 + 2 + 3 + 4 +  1 + 2 + 3 + 4 +                                     2x

Chorus : (6 bars) 0:40
G-----------------|-------5--5---5-|----------------|----------------|
D-----------------|------5---------|----------------|----------------|
A-7---------------|3---------------|-------5--5---5-|-------5--5---5-|
E-------55--5-----|----------------|3-----3---------|3-----3---------|  

G-----------------|----------------|
D-----------------|----------------|
A--------5--5---5-|-------5--5---5-|
E-3-----3---------|3-----3---------|

Break : (4 bars) 0:55
G-----------------|-----------------|-----------------|-----------------|
D-----------------|-----------------|-----------------|-----------------|
A-----------------|-----------------|5----------------|5----------------|
E-3---------------|3----------------|-----------------|-----------------|

Verse : (8 bars) 1:05

Chorus : (6 bars) 1:25

Bridge : (8 bars) 1:39
G-----------------|----------------|----------------|----------------|
D-----------------|----------------|----------------|----------------|
A-----------------|----------------|5--5--5---5-5---|5--5--5---5-5---|
E-3---------------|3---------------|----------------|----------------|
 
G-----------------|----------------|----------------|----------------|
D-----------------|----------------|----------------|----------------|
A-----------------|----------------|5--5--5---5-5---|5--5--5---------|
E-3---------------|3---------------|----------------|----------------|

Verse : (8 bars) 1:59

Chorus : ( bars) 2:19
G-----------------|-------5--5---5-|----------------|----------------|
D-----------------|------5---------|----------------|----------------|
A-7---------------|3---------------|-------5--5---5-|-------5--5---5-|
E-------55--5---5-|----------------|3-----3---------|3-----3---------|  

G-----------------|-------5--5---5-|----------------|5------5--5---5-|
D-----------------|------5---------|7------7--7---7-|------5---------|
A-7---------------|3---------------|------7---------|----------------|
E-------55--5---5-|----------------|----------------|----------------|

G-----------------|----------------|
D-----------------|----------------|
A--------5--5---5-|-------5--5---5-|
E-3-----3---------|3-----3---------| 

Guitar Outro : (till fade)
            

comments powered by Disqus
↑ Back to top | Jack Johnson Bass for Mud Football. Lyrics for acoustic guitar and electric guitar. Tablatures and chords are parodies/interpretations of the original songs. You may use it for private study, scholarship, research or language learning purposes only