» » »

Jack Johnson, Mud Football Tabs (ver.1)

Artists:  A B C D E F G H I J K L M N O P Q R S T U V W X Y Z # 

Mud Football Tabs (ver.1)

Jack Johnson Tabs
Rating:
0/5 (0 votes)
Mud Football lessons Tabs too difficult? Try these video lessons and learn fast
                Intro/verse/breakdown chords
The intro and verse are made up of all the same chords, just figure out the beat to the song.

--3---3-------------------------]
--3---3-------------------------]
--4---5-------------------------]
--5---4-------------------------]
--5---5-------------------------]
--3-----------------------------]

Chorus
--7---5---8----5-------------------]
--8---5---8----5-------------------]
--9---6---9----6-------------------]
--9---7---10---7-------------------]
--7---7---10---7-------------------]
------5---8----5-------------------]

Bridge riff
---------------------------------------------------]
---------------------------------------------------]
--10--9---7--------------------------7---7---------]
--------------4times then end on ------------------]
--8---7---5--------------------------5---5---------]
---------------------------------------------------]
            

comments powered by Disqus
↑ Back to top | Jack Johnson Tabs for Mud Football. Lyrics for acoustic guitar and electric guitar. Tablatures and chords are parodies/interpretations of the original songs. You may use it for private study, scholarship, research or language learning purposes only