» » »

Jack Johnson, Middle Man Bass tabs (ver.1)

Artists:  A B C D E F G H I J K L M N O P Q R S T U V W X Y Z # 

Middle Man Bass tabs (ver.1)

Jack Johnson Tabs
Rating:
0/5 (0 votes)
Middle Man lessons Tabs too difficult? Try these video lessons and learn fast
                [This was created with TabIt for Windows version 1.62]
                                                   <<<<<<<<<<<<<<<<<<<<<<
G  :------|---4-----4-7-9-7-4-0|----2---2-2-2-----|*----4-----4-7-9-7-4-0|
D  :0-----|2------2------------|------0---------0-| 2-------2------------|
A  :--2-4-|-----4--------------|0-------------4---| ------4--------------|
E  :------|--------------------|------------------| ---------------------|

    <<<<<<<<<<repeat 4xs          
G  :----2-------------*4|----------------|----2------------|
D  :------2-4-4-4---0- ||2---2---2---2---|-------2-2-2-2-2-|
A  :0-------------4--- ||----------------|2----------------|
E  :------------------ ||----------------|-----------------|

     <<<<<<<<<<<<<<<<<<<<<<<<<<<<repeat 2xs                  
G  :|*-----------------|-----------------*2|-----------------|
D  :| 2---2--0-0-0-0---|----------------- ||2---2--0-0-0-0---|
A  :| -----------------|0---0--4-4-4-4-4- ||-----------------|
E  :| -----------------|----------------- ||-----------------|

G  :--0-0-----------|----4-----4-7-9-7-4-0|----2---2-2-2-----|
D  :-------4-4--3-3-|2-------2------------|------0---------0-|
A  :----------------|------4--------------|0-------------4---|
E  :----------------|---------------------|------------------|

G  :----4-----4-7-9-7-4-0|----2------------|
D  :2-------2------------|-------0-----0-0-|
A  :------4--------------|0--------4-4-----|
E  :---------------------|-----------------|

Then Go Back To Third Measure

sounds like.
I know that it is not perfect so please correct this.

 					C-Man
            

comments powered by Disqus
↑ Back to top | Jack Johnson Bass for Middle Man. Lyrics for acoustic guitar and electric guitar. Tablatures and chords are parodies/interpretations of the original songs. You may use it for private study, scholarship, research or language learning purposes only