>
 >
Lullaby

Lullaby Guitar Tabs

Jack Johnson - Lullaby chords, tabs, tablatures, lyrics

Guitar lessons | Add/correct | Request | Top 50 tabs Artists:  A B C D E F G H I J K L M N O P Q R S T U V W X Y Z 0-9

Lullaby Guitar Tabs – Jack Johnson

CD, Sheet music, Poster

Do you like Lullaby? Share with your friends now
ChordsChords v2Chords v3TabsTabs v2Ukulele
Artist(s):  Matt Costa and Jack Johnson


Note:  This is my first time writing a tab.  I think it's right.  If you have a recorded
of the song, you just have to listen past the yukalale.  I'm not really sure how matt
picks the song but I just pick it this way and it sounds pretty good.  Hope you enjoy it

    Richard Y


Tuning: Standard
[Capo 1]

Intro

e |----------------|----------------|----------------|----------------|
B |----------------|----------------|----------------|-1-------0------|
G |----------------|----------------|----------------|-----0-------0--|
D |----------------|----------------|----------------|----------------|
A |----------------|----------------|----------------|-3-------2------|
E |----------------|----------------|----------------|----------------|


e |----------------|----------------|----------------|----------------|
B |-----1----------|-----1----------|-----0----------|-----0----------|
G |-----2-----2---2|-----2-----2---2|-----0-----0---0|-----0-----0---0|
D |-------------2--|-------------2--|-------------2--|-------------2--|
A |-0-------0------|-0-------0------|----------------|----------------|
E |----------------|----------------|-0-------0------|-0-------0------|


e |----------------|----------------|----------------|----------------|
B |-----1----------|-----1----------|-----3----------|-----3----------|
G |-----2-----2---2|-----2-----2---2|-----0-----0---0|-----0-----0---0|
D |-------------3--|-------------3--|-------------0--|-------------0--|
A |----------------|----------------|----------------|----------------|
E |-1-------1------|-1-------1------|-3-------3------|-3-------3------|


Verse 1

e |----------------|----------------|----------------|----------------|
B |-----1----------|-----1----------|-----1----------|-----1----------|
G |-----0-----0---0|-----0-----0---0|-----0-----0---0|-----0-----0---0|
D |-------------2--|-------------2--|-------------2--|-------------2--|
A |-3-------3------|-3-------3------|-3-------3------|-3-------3------|
E |----------------|----------------|----------------|----------------|

 1. When you're so lonely             lying in bed
 2. EVeryone's sleeping               all through the house


e |----------------|----------------|----------------|----------------|
B |-----1----------|-----1----------|-----3----------|-----3----------|
G |-----2-----2---2|-----2-----2---2|-----3-----3---3|-----3-----3---3|
D |-------------3--|-------------3--|-------------3--|-------------3--|
A |----------------|----------------|-1-------1------|-1-------1------|
E |-1-------1------|-1-------1------|----------------|----------------| X2

    night's closed its eyes but you   can't rest your head
you  wish  you  could dream but for-got to somehow

Chorus

e |----------------|----------------|----------------|----------------|
B |-----3----------|-----3----------|-----1----------|-----1----------|
G |-----0-----0---0|-----0-----0---0|-----0-----0---0|-----0-----0---0|
D |-------------0--|-------------0--|-------------2--|-------------2--|
A |----------------|----------------|-3-------3------|-3-------3------|
E |-3-------3------|-3-------3------|----------------|----------------|

Sing this lullaby...           to your-self

e |----------------|----------------|----------------|----------------|
B |-----3----------|-----3----------|-----1----------|-----1----------|
G |-----3-----3---3|-----0-----0---0|-----0-----0---0|-----0-----0---0|
D |-------------3--|-------------0--|-------------2--|-------------2--|
A |-1-------1------|----------------|-3-------3------|-3-------3------|
E |----------------|-3-------3------|----------------|----------------|

Sing this lullaby...           to your-self

Verse 2

e |----------------|----------------|----------------|----------------|
B |-----1----------|-----1----------|-----1----------|-----1----------|
G |-----0-----0---0|-----0-----0---0|-----0-----0---0|-----0-----0---0|
D |-------------2--|-------------2--|-------------2--|-------------2--|
A |-3-------3------|-3-------3------|-3-------3------|-3-------3------|
E |----------------|----------------|----------------|----------------| X2

 1. If   you   are   waiting,         waiting    for   me
 2. I'll  be  home   Sunday,          just   in   one  week


e |----------------|----------------|----------------|----------------|
B |-----1----------|-----1----------|-----3----------|-----3----------|
G |-----2-----2---2|-----2-----2---2|-----3-----3---3|-----3-----3---3|
D |-------------3--|-------------3--|-------------3--|-------------3--|
A |----------------|----------------|-1-------1------|-1-------1------|
E |-1-------1------|-1-------1------|----------------|----------------| X2

    I'll  be  home   soon darling,      I guarantee
    dry   up   your  tears,     if    you  start  to   weep

Chorus

e |----------------|----------------|----------------|----------------|
B |-----3----------|-----3----------|-----1----------|-----1----------|
G |-----0-----0---0|-----0-----0---0|-----0-----0---0|-----0-----0---0|
D |-------------0--|-------------0--|-------------2--|-------------2--|
A |----------------|----------------|-3-------3------|-3-------3------|
E |-3-------3------|-3-------3------|----------------|----------------|

Sing this lullaby...           to your-self

e |----------------|----------------|----------------|----------------|
B |-----3----------|-----3----------|-----1----------|-----1-------0--|
G |-----3-----3---3|-----0-----0---0|-----0-----0---0|-----0-------0--|
D |-------------3--|-------------0--|-------------2--|----------------|
A |-1-------1------|----------------|-3-------3------|-3-------2------|
E |----------------|-3-------3------|----------------|----------------|

Sing this lullaby...           to your-self

Bridge

e |----------------|----------------|----------------|----------------|
B |-----1----------|-----1----------|-----0----------|-----0----------|
G |-----2-----2---2|-----2-----2---2|-----0-----0---0|-----0-----0---0|
D |-------------2--|-------------2--|-------------2--|-------------2--|
A |-0-------0------|-0-------0------|----------------|----------------|
E |----------------|----------------|-0-------0------|-0-------0------|

    Lullaby,                      I'm not nearby


e |----------------|----------------|----------------|----------------|
B |-----1----------|-----1----------|-----3----------|-----3----------|
G |-----2-----2---2|-----2-----2---2|-----0-----0---0|-----0-----0---0|
D |-------------3--|-------------3--|-------------0--|-------------0--|
A |----------------|----------------|----------------|----------------|
E |-1-------1------|-1-------1------|-3-------3------|-3-------3------|

Sing this lullaby...           to your-self


e |----------------|----------------|----------------|----------------|
B |-----1----------|-----1----------|-----3----------|-----3----------|
G |-----2-----2---2|-----2-----2---2|-----0-----0---0|-----0-----0---0|
D |-------------3--|-------------3--|-------------0--|-------------0--|
A |----------------|----------------|----------------|----------------|
E |-1-------1------|-1-------1------|-3-------3------|-3-------3------|

    Don't you cry,             no     don't you cry

e |----------------|----------------|----------------|----------------|
B |-----0----------|-----0----------|-----1----------|-----1----------|
G |-----0-----0---0|-----0-----0---0|-----2-----2---2|-----2-----2---2|
D |-------------2--|-------------2--|-------------2--|-------------2--|
A |----------------|----------------|-0-------0------|-0-------0------|
E |-0-------0------|-0-------0------|----------------|----------------|

Sing this lullaby...           to your-self

Verse 3

e |----------------|----------------|----------------|----------------|
B |-----1----------|-----1----------|-----1----------|-----1----------|
G |-----0-----0---0|-----0-----0---0|-----0-----0---0|-----0-----0---0|
D |-------------2--|-------------2--|-------------2--|-------------2--|
A |-3-------3------|-3-------3------|-3-------3------|-3-------3------|
E |----------------|----------------|----------------|----------------|

Cause when     I    ar-rive dear,  it   won't  be  that  long


e |----------------|----------------|----------------|----------------|
B |-----1----------|-----1----------|-----1----------|-----1----------|
G |-----2-----2---2|-----2-----2---2|-----2-----2---2|-----2-----2---2|
D |-------------3--|-------------3--|-------------3--|-------------3--|
A |----------------|----------------|----------------|----------------|
E |-1-------1------|-1-------1------|-1-------1------|-1-------1------|

No it won't seem like anyime         that I've been   gone


e |----------------|----------------|----------------|----------------|
B |-----1----------|-----1----------|-----1----------|-----1----------|
G |-----0-----0---0|-----0-----0---0|-----0-----0---0|-----0-----0---0|
D |-------------2--|-------------2--|-------------2--|-------------2--|
A |-3-------3------|-3-------3------|-3-------3------|-3-------3------|
E |----------------|----------------|----------------|----------------|

Well it  ain't  the   first   time,    won't  be  the   last


     e |--------------------------------|--------------------------------|
     B |--------------------------------|--------------------------------|
     G |-2---------------2--------------|-4---------------4--------------|
     D |--------------------------------|--------------------------------|
     A |--------------------------------|--------------------------------|
     E |-1---------------2--------------|-3---------------4--------------|

Won't you remember       these words to   help the        time


     e |----------------|----------------|
     B |-1--------------|----------------|
     G |-2--------------|----------------|
     D |-2--------------|----------------|
     A |-0--------------|-------0---2---3|
     E |----------------|----------------|

         pass

Verse 1

e |----------------|----------------|----------------|----------------|
B |-----1----------|-----1----------|-----1----------|-----1----------|
G |-----0-----0---0|-----0-----0---0|-----0-----0---0|-----0-----0---0|
D |-------------2--|-------------2--|-------------2--|-------------2--|
A |-3-------3------|-3-------3------|-3-------3------|-3-------3------|
E |----------------|----------------|----------------|----------------|

 1. When you're so lonely             lying in bed
 2. EVeryone's sleeping               all through the house


e |----------------|----------------|----------------|----------------|
B |-----1----------|-----1----------|-----3----------|-----3----------|
G |-----2-----2---2|-----2-----2---2|-----3-----3---3|-----3-----3---3|
D |-------------3--|-------------3--|-------------3--|-------------3--|
A |----------------|----------------|-1-------1------|-1-------1------|
E |-1-------1------|-1-------1------|----------------|----------------| X2

    night's closed its eyes but you   can't rest your head
you  wish  you  could dream but for-got to somehow

Chorus

e |----------------|----------------|----------------|----------------|
B |-----3----------|-----3----------|-----1----------|-----1----------|
G |-----0-----0---0|-----0-----0---0|-----0-----0---0|-----0-----0---0|
D |-------------0--|-------------0--|-------------2--|-------------2--|
A |----------------|----------------|-3-------3------|-3-------3------|
E |-3-------3------|-3-------3------|----------------|----------------|

Sing this lullaby...           to your-self

e |----------------|----------------|----------------|----------------|
B |-----3----------|-----3----------|-----1----------|-----1----------|
G |-----3-----3---3|-----0-----0---0|-----0-----0---0|-----0-----0---0|
D |-------------3--|-------------0--|-------------2--|-------------2--|
A |-1-------1------|----------------|-3-------3------|-3-------3------|
E |----------------|-3-------3------|----------------|----------------|

Sing this lullaby...           to your-self

Ending

e |----------------|----------------|----------------|----------------|
B |-----1----------|-----1----------|-----3----------|-----3----------|
G |-----2-----2---2|-----2-----2---2|-----0-----0---0|-----0-----0---0|
D |-------------3--|-------------3--|-------------0--|-------------0--|
A |----------------|----------------|----------------|----------------|
E |-1-------1------|-1-------1------|-3-------3------|-3-------3------|

Sing this lullaby...           to your-self

e |----------------|----------------|----------------|----------------|
B |-----3----------|-----3----------|-----1---1/3----|-1--------------|
G |-----3-----3---3|-----0-----0---0|-----0---0-0----|-0--------------|
D |-------------3--|-------------0--|----------------|-2--------------|
A |-1-------1------|----------------|-3-------3/5----|-3--------------|
E |----------------|-3-------3------|----------------|----------------|

Sing this lullaby...           to your-self





Comments


Popular Jack Johnson tabs & chords
Flake 2 Bass Tabs
Flake 4 Bass Tabs
Losing Hope Bass Tabs
Jungle Gym Chords
My Little Girl Chords
Sleep Through The Static 2 Chords
My Little Girl 5 Tabs
Rodeo Clowns 2 Tabs
They Do They Dont Tabs
Pictures Of People Taking Pictures Ukulele


Song lyrics



↑ Back to top | Tablatures and chords are parodies/interpretations of the original songs. You may use it for private study, scholarship, research or language learning purposes only
© 2014 AZChords.com Contact us | Privacy policy | DMCA | Add/correct tabs | Request tabs | Top 50 tabs