» » »

Losing Keys Bass tabs (ver.1)

Artists:  A B C D E F G H I J K L M N O P Q R S T U V W X Y Z # 

Losing Keys Bass tabs (ver.1)

Jack Johnson
Rating:
0/5 (0 votes)

Hard to play? Try these video lessons and learn fast.
                LOSING KEYS
By JACK JOHNSON

INTRO:                x2
G|----------------------|
D|-5~-----5-------5~----|
A|-----57---7-57--------|
E|----------------------|

VERSE:                                                     x2
G|----------------|----------------|------------------|------|
D|-5~-----5-------|----------------|------------------|------|
A|-----57---7-57--|-5~-----5-------|-7~------7-7-910--|-3~---|
E|----------------|-----57---7-57--|-----710----------|------|

CHORUS:
G|----------------|------|
D|-7~-----7-------|------| x2
A|-----79---9-79--|-5~---|
E|----------------|------|

G|--------------------------|
D|--------------------------|
A|-5-3~---5~----3~----5~----|
E|--------------------------|

- Verse x4 

- Chorus

- Intro

- Verse (to the end)
            
Hard to play? Try these video lessons and learn fast. | Correct




comments powered by Disqus
↑ Back to top | Tablatures and chords are parodies/interpretations of the original songs. You may use it for private study, scholarship, research or language learning purposes only