» » »

Jack Johnson, Loosing Hope Tabs (ver.1)

Artists:  A B C D E F G H I J K L M N O P Q R S T U V W X Y Z # 

Loosing Hope Tabs (ver.1)

Jack Johnson Tabs
 Rating:
4/5 (4 votes)
Loosing Hope lessons Tabs too difficult? Try these video lessons and learn fast
1
                
Just listen to the Song!!! I think this is correct but maybe you 
get some problem by reading it :/ Sorry
You can made up you own picking pattern cause I don´t know which is right!

VERSE

e-|-----|-----|-----|-------------|-|------------|-|---------------------------
B-|-----|-----|-----|-------------|-|----3----3--|-|---------------------------
G-|-----|--5--|-----|-------------|-|----5----5--|-|---------------------------
D-|--7--|--5--|--5--|-------------|-|----5----5--|-|---------------------------
A-|--7--|--3--|--5--|-------------|-|--3----3----|-|---------------------------
E-|--5--|-----|--3--|-------------|-|------------|-|---------------------------
        reapeat                    prechours reapeat          


                                                                             
CHOURS

e-|-----|-----|-----|--0--|-|-----|-----|-|-----|-----|-----|-----|-----|------
B-|-----|-----|-----|--0--|-|-----|-----|-|-----|-----|-----|-----|-----|------
G-|--5--|--5--|--2--|--2--|-|--7--|-----|-|--5--|--5--|--2--|--5--|-----|------
D-|--5--|--5--|--2--|--2--|-|--7--|--5--|-|--5--|--5--|--2--|--5--|--5--|------
A-|--3--|--2--|--0--|--0--|-|--5--|--5--|-|--3--|--2--|--0--|--3--|--5--|------
E-|-----|-----|-----|-----|-|-----|--3--|-|-----|-----|-----|-----|--3--|------
                          | |           | |
                          | |  reapeat  | |
            
Submit corrections

comments powered by Disqus
↑ Back to top | Jack Johnson Tabs for Loosing Hope. Lyrics for acoustic guitar and electric guitar. 1 Tablatures and chords are parodies/interpretations of the original songs. You may use it for private study, scholarship, research or language learning purposes only