» » »

Jack Johnson, Inaudible Melodies Tabs (ver.3)

Artists:  A B C D E F G H I J K L M N O P Q R S T U V W X Y Z # 

Inaudible Melodies Tabs (ver.3)

Jack Johnson Tabs
Rating:
0/5 (0 votes)
Inaudible Melodies lessons Tabs too difficult? Try these video lessons and learn fast
                Capo 2nd Fret


Intro:
------

|--0-0-0h2p0---0----------4h7p4---4-------5h7p5---5-------
|--0---------0------------------4----4----------5---------
|--1--------------2-2--4-------------4--6-----------4--2--
|--2--------------1-1--4h6-----------4--7-----------4--2--
|--2--------------2-2--4----------------7-----------6--4--
|--0------------------------------------------------4--2--

|------------0---3p0-0----------------------------------------------------
|--1/3--1/3--0---------0------------------1/3-1/3-------------------------
|--2/4--2/4--1-----------2-2h4p2-0--------2/4-2/4--2b(3)b2-0-1/2-0--------
|------------0----------------------0-1-2--------------------------0-1-2--
|-------------------------------------------------------------------------
|-------------------------------------------------------------------------

|-----------0--3----x----
|--1/3-1/3--5----3--x----
|--2/4-2/4--4-------2----
|-----------5-------1----
|-------------------2----
|------------------------

Verse 1 Only:
-------------

|---------x-------------x---------x----------x----------x------x-----x--x---x--
|---------x-------------2---------x----------2----------4------2-----x--x---x--
|---------1-------------2---------1----------2----------4------2-----1--1---4--
|----2----2-----2-2-0---2----2----2----2-2---2----2-----4------2-----2--2---4--
|--4------2---4-------0----4------2--4-----0----4---4-2----2-0---0---2--2---2--
|------0------------------------0----------------------------------0-----------


Solo:
-----

|--9-12-9------9__--9-12-9----------9-12-9----------9-9-9-9-12/--
|--x------(12)------x------12-9__---x------12-10__--x------------
|--x----------------x---------------x---------------x------------
|--x--------------------------------x----------------------------
|----------------------------------------------------------------
|----------------------------------------------------------------


Outro:
------
|--0-0-0h2p0---0----------4h7p4---4-------5h7p5---5-------0--
|--0---------0------------------4----4----------5---------0--
|--1--------------2-2--4-------------4--6-----------4--2--1--
|--2--------------1-1--4h6-----------4--7-----------4--2--2--
|--2--------------2-2--4----------------7-----------6--4--2--
|--0------------------------------------------------4--2--0--


The song follows an E I-IV-V Progression (E-A-E-A-B-A-E) for the first two verses and then switches to E-G#-A-F# for the rest of the song.
            
Submit corrections

comments powered by Disqus
↑ Back to top | Jack Johnson Tabs for Inaudible Melodies. Lyrics for acoustic guitar and electric guitar. Tablatures and chords are parodies/interpretations of the original songs. You may use it for private study, scholarship, research or language learning purposes only