» » »

Jack Johnson, Imagine Tabs (ver.1)

Artists:  A B C D E F G H I J K L M N O P Q R S T U V W X Y Z # 

Imagine Tabs (ver.1)

Jack Johnson Tabs
Rating:
0/5 (0 votes)
Imagine lessons Tabs too difficult? Try these video lessons and learn fast
                written by John Lennon
as performed by Jack Johnson


I'm pretty sure that everything here is right. It's a cool song and not
too hard to play. The song is just a lot of repeating.

Capo on 6th fret

Intro/Verse:                          X6
                                                         ---|
e-----0--------0--------0------0--------0---------------    |
b--------1--------1---------------1--0-----1--0h1-------    |
g-----------0--------0------------------------0---------    |
d-------------------------------------------------------    |
a--3------------------------3---------------------------    |
E-------------------------------------------------------    |
                                                            |---->  x6
                                                            |
e-----0--------0--------0------0--------0--------0------    |
b--------1--------1---------------1--------1------------    |
g-----------2--------2---------------2--------2---------    |
d--3------------------------3---------------------------    |
a-------------------------------------------------------    |
E-------------------------------------------------------    |
                                                         ---|



Pre-Chorus:

e-----0--------0--------0------0--------0--------0------
b--------1--------1---------------1--------1------------
g-----------2--------2---------------0--------0---------
d--3------------------------2---------------------------
a-------------------------------------------------------
E-------------------------------------------------------

e-----1--------1--------1------1--------1---------------
b--------3--------3---------------3--------3------------
g-----------2--------2---------------2--------4---------
d--0------------------------------------------3---------
a---------------------------3---------------------------
E-------------------------------------------------------

e-----3--------3------------3--------3------------------
b--------3--------3------------3--------3---------------
g-----------0--------0------------0--------0------------
d-------------------------------------------------------
a-------------------------------------------------------
E--3---------------------3--------------------3---------

Chorus:
                                                         ---|
e-----1--------1--------1------3--------3--------3------    |
b--------1--------1---------------0--------0------------    |
g-----------2--------2---------------0--------0---------    |
d-------------------------------------------------------    |
a-------------------------------------------------------    |
E--1------------------------3---------------------------    |-----> x4
                                                            |
e-----0--------0--------0------0--------0--------0------    |
b--------1--------1---------------0--------0------------    |
g-----------0--------0---------------1--------1---------    |
d-------------------------------------------------------    |
a--3----------------------------------------------------    |
E---------------------------0---------------------------    |
                           |------------------------|    ---|
                                        |
                                        |
                                        |
                               don't play th 4th time, but just 
                               repeat the riff that is right before it


Lyrics:

Imagine there's no Heaven
It's easy if you try
No Hell below us
And above us is only sky

Imagine all the people
Living for today

You may say that i'm a dreamer
But I am not the only one
I hope someday you will join us
And the world will live as one

Imagine there's no countries
It isn't hard to do
Nothing to kill or die for
No religion, too

Imagine all the people
Living life for peace

You may say that I'm a dreamer
But I am not the only one
I hope someday you will join us 
and the world will live as one

Imagine no possessions
I wonder if you can
No need for greed or hunger
A brotherhood of man

Imagine all the people
Sharing all the world 

You may say that I'm a dreamer
But I am not the only one
I hope someday you will join us
And the world will live as one
            

comments powered by Disqus
↑ Back to top | Jack Johnson Tabs for Imagine. Lyrics for acoustic guitar and electric guitar. Tablatures and chords are parodies/interpretations of the original songs. You may use it for private study, scholarship, research or language learning purposes only