» » »

Go On Bass tabs (ver.1)

Artists:  A B C D E F G H I J K L M N O P Q R S T U V W X Y Z # 

Go On Bass tabs (ver.1)

Jack Johnson
Rating:
0/5 (0 votes)

Hard to play? Try these video lessons and learn fast.
                -------------------------------------------------------------------------------
			     Go On - Jack Johnson
-------------------------------------------------------------------------------


Tuning:EADG

Intro
G|---------------------------------------|
D|---------------------------------------| 
A|-----7h9p7---2h4p2--0-2----------------| x4
E|-0----------------------0-2------5-----|

Verse
G|---------------------------------------|
D|---------------------------------------|
A|----------2---2-2----------0---0-0-----| x4
E|-0---0-0-----------2---2-2-------------|

Chorus
G|---------------------------------------|
D|---------------------------------------|
A|-4---4-4--7---7-7----------0--0-0------| x2
E|------------------7---7-7--------------|

Bridge
G|---------------------------------------|
D|---------------------------------------|
A|-4---4-4----------4---4-4--------------| x2
E|---------2---2-2----------2---2-2------|

Enjoy
            
Hard to play? Try these video lessons and learn fast. | Correct




comments powered by Disqus
↑ Back to top | Tablatures and chords are parodies/interpretations of the original songs. You may use it for private study, scholarship, research or language learning purposes only