» » »

Jack Johnson, Gone Bass tabs (ver.1)

Artists:  A B C D E F G H I J K L M N O P Q R S T U V W X Y Z # 

Gone Bass tabs (ver.1)

Jack Johnson Tabs
Rating:
0/5 (0 votes)
Hard to play? Try these video lessons and learn fast.
                Hey, this is my first tab. Please leave me feed back





Intro

G|----------------------------------------|
D|----------------------------------------|
A|--8-9-------8-9------8-9------8-9-------|
E|-------9---------9--------9--------9----|

Verse

G|----------------------------------------|
D|----------------------------------------|
A|--8-12---------8-12---------8-12--------|
E|-------10-8-6-------10-8-6-------10-8-6-|

G|------------------|
D|------------------|
A|--10-10-10--------|   X2
E|------------8-8-8-|

Chorus

G|----------------------------------------------|
D|----------------------------------------------|
A|--7-10----5-8----7-10----5-8----7-10----5-8---|
E|-------7------6-------7------6-------7------6-|

G|-------------------|
D|-------------------|
A|--8-9-------8-9----|
E|-------9---------9-|

Verse

G|----------------------------------------|
D|----------------------------------------|
E|--8-12---------8-12---------8-12--------|
A|-------10-8-6-------10-8-6-------10-8-6-|

G|------------------|
D|------------------|
E|--10-10-10--------|   
A|------------8-8-8-|

Chorus

G|----------------------------------------------|
D|----------------------------------------------|
E|--7-10----5-8----7-10----5-8----7-10----5-8---| X2
A|-------7------6-------7------6-------7------6-|



G|-----|
D|-----|
E|--8~-|
A|-----|
            

comments powered by Disqus
↑ Back to top | Jack Johnson Bass for Gone. Lyrics for acoustic guitar and electric guitar. Tablatures and chords are parodies/interpretations of the original songs. You may use it for private study, scholarship, research or language learning purposes only