» » »

Jack Johnson, Girl I Wanna Lay You Down Tabs (ver.1)

Artists:  A B C D E F G H I J K L M N O P Q R S T U V W X Y Z # 

Girl I Wanna Lay You Down Tabs (ver.1)

Jack Johnson Tabs
 Rating:
4/5 (4 votes)
Girl I Wanna Lay You Down lessons Tabs too difficult? Try these video lessons and learn fast
1
                -----------------------------------------------------------------
Girl I Wanna Lay You Down - Zach Gill and Jack Johnson
-----------------------------------------------------------------

Tuning:EADGBE

Intro
e|---310-----310-010-----310-010----310-3~--3--333-3-1-111-1-----|
B|123---3-123-------3-123-------3-123----------------------------|
G|---------------------------------------------------------------|
D|---------------------------------------------------------------|
A|-----------------------------------------3--------2------------|
E|---------------------------------------------------------------|

e|-3-333-3-1-111-1-3-333-3/5-1-111-1/3-3-333-3-1-111-1-----------|
B|---------------------------------------------------------------|
G|---------------------------------------------------------------|
D|---------------------------------------------------------------|
A|3-------2-------3---------2---------3-------2------------------|
E|---------------------------------------------------------------|

Verse 1
e|-------------------333-----------------------------------111---|
B|---------------------------------------------------------------|
G|---------------------------------------------------------------|
D|---------------------------------------------------------------|
A|---------------------------------------------------------------|
E|---------------------------------------------------------------|
          I come over                  early in the morning
   I'm like a heat wave                     without warning
     When I touch you         I can feel your heart flutter
I'm smooth and creamy                    like peanut butter

Chorus
e|---------333---------------1-11-131-1--------------------------|
B|---------------------------------------------------------------|
G|---------------------------------------------------------------|
D|---------------------------------------------------------------|
A|---------------------------------------------------------------|
E|---------------------------------------------------------------|
  Girl, I wanna lay you down

Accordion Solo
e|0h3----------------0----------------------------4h6-8-88-88----|
B|---5p3p01----02-4p0-2-0--------------------4-4h6---------------|
G|----------0h2--------3-0---------------------------------------|
D|---------------------------0-|play this x10--------------------|
A|------------------------0h2--|---------------------------------|
E|---------------------------------------------------------------|

e|999-9h11p9---------8--5--5--2--2—------------0-020-020-020-----|
B|----------11--------85-52-52-2—-2--4—-4----13-----3---3---3----|
G|------------------------------3--3--30-30h2--------------------|
D|---------------------------------------------------------------|
A|---------------------------------------------------------------|
E|---------------------------------------------------------------|

e|020------------------------------------------------------------|
B|---3/8-6/8635--------------------------------------------------|
G|-------------5-------------------------------------------------|
D|---------------------------------------------------------------|
A|---------------------------------------------------------------|
E|---------------------------------------------------------------|

Verse 2
e|-------------------333-----------------------------------111---|
B|---------------------------------------------------------------|
G|---------------------------------------------------------------|
D|---------------------------------------------------------------|
A|---------------------------------------------------------------|
E|---------------------------------------------------------------|
  I'm gonna flood you                    like a love river
     Baby the postman                  is about to deliver
Cookin up some dinner                       a little pasta
 Listen to some music                       a little rasta

Chorus
e|---------333---------------1-11-131-1--------------------------|
B|---------------------------------------------------------------|
G|---------------------------------------------------------------|
D|---------------------------------------------------------------|
A|---------------------------------------------------------------|
E|---------------------------------------------------------------|
  Girl, I wanna lay you down
 
NOTE: This is Zach's accordion part tabulated for guitar. There are
certain places where a vibrato is necessary, listen to the song.

For Jack's guitar part, follow this link:

| / slide up
| \ slide down
| h hammer-on
| p pull-off
| ~ vibrato
| + harmonic
| x Mute note
            
Submit corrections

comments powered by Disqus
↑ Back to top | Jack Johnson Tabs for Girl I Wanna Lay You Down. Lyrics for acoustic guitar and electric guitar. 1 Tablatures and chords are parodies/interpretations of the original songs. You may use it for private study, scholarship, research or language learning purposes only