» » »

Jack Johnson, F Stop Blues Bass tabs (ver.2)

Artists:  A B C D E F G H I J K L M N O P Q R S T U V W X Y Z # 

F Stop Blues Bass tabs (ver.2)

Jack Johnson Tabs
Rating:
0/5 (0 votes)
F Stop Blues lessons Tabs too difficult? Try these video lessons and learn fast
                F-stop blues by Jack Johnson		^let ring


intro
G|------------------------------------|
D|------------------------------------|
A|-------------0^-----2^------------|		2 times
E|---0^---4^------------------------|

Verse
G|--------------------------------------|
D|--------------------------------------|
A|-------------2^----0^----0^--------|	7 times
E|----0^-------------------------------|

End verse
G|------------------------------------------|
D|------------------------------------------|	1 time
A|--------2^-------0^---------------------|
E|--0^-------------------------------------|

Chorus
G|---------------------------------------------|
D|---------------------------------------------|		4 times
A|--------------------------0^--0----2^--2--|
E|--0^---0-----4^---4-----------------------|

Guitar Solo
G|------------------------------------------|
D|------------------------------------------|		2 times
A|----------------------0^--0----2^--2---|
E|---0^--0----4^--4----------------------|
Verse
G|-----------------------------------------|
D|-----------------------------------------|
A|--------2^----0^----0-0---------------|	2 times
E|--0^-------------------------------------|

Bridge
G|------------------------------------------|
D|------------------------------------------|	1 time
A|------------------0^---------------------|
E|---2^---2-2--2-------------------------|

Chorus
G|----------------------------------------------|
D|----------------------------------------------|	4 times
A|------------------------0^---0------2^--2--|
E|--0^---0----4^---4-------------------------|

Outro, Fade out
G|----------------------------------------------|
D|----------------------------------------------|
A|-------------------------0^--0------2^---2-|		2 times  
E|---0^--0-----4^--4-------------------------|
            

comments powered by Disqus
↑ Back to top | Jack Johnson Bass for F Stop Blues. Lyrics for acoustic guitar and electric guitar. Tablatures and chords are parodies/interpretations of the original songs. You may use it for private study, scholarship, research or language learning purposes only