» » »

Enemy Bass tabs (ver.1)

Artists:  A B C D E F G H I J K L M N O P Q R S T U V W X Y Z # 

Enemy Bass tabs (ver.1)

Jack Johnson
Rating:
0/5 (0 votes)

Hard to play? Try these video lessons and learn fast.
                ENEMY
By JACK JOHNSON

VERSE: x11
G|-------------------------------------|
D|-------------------------------------|
A|-8~-----8~------8~-------------------|
E|-------8-------8------8~----8-8~-----|

CHORUS:
G|------------------------------------|
D|-8-8-8-8-10-10-10-10--------8-8-8-8-|
A|---------------------8~---8---------|
E|------------------------------------| x2

G|---------------------------------|
D|-8-8-8-8-10-10-10-10-10-10-10-10-|
A|---------------------------------|
E|---------------------------------|

- Verse (x4)

- Chorus

- Verse (x2)
            
Hard to play? Try these video lessons and learn fast. | Correct




comments powered by Disqus
↑ Back to top | Tablatures and chords are parodies/interpretations of the original songs. You may use it for private study, scholarship, research or language learning purposes only