» » »

Drink The Water Tabs (ver.1)

Artists:  A B C D E F G H I J K L M N O P Q R S T U V W X Y Z # 

Drink The Water Tabs (ver.1)

Jack Johnson
Rating:
0/5 (0 votes)

Tabs too difficult? Try these video lessons and learn fast.
                Drink the Water
Standard Tuning
Intro
-------------------------------------------------
-------------------------------------------------
---6-66-666/9-999/11-1111--44-xx--13-131313-1313--
-------------------------------------------------
---4-44-444/7-777/9--9—9---22-xx--11-111111-1111--
-------------------------------------------------

------------------------
------------------------
---99-99/11-111111--44--
------------------------
---77-77/9--9-9-9---22--
------------------------

these are the chords for the verse

----4----4----4----2-----------------------------
----5----5----4----2-----------------------------
----6----6----5----3-----------------------------
----6----6----6----4-----------------------------
----4----4----6----4-----------------------------
----4----4----4----2-----------------------------

Chorus

--0----4----4----4-------------------------------
--0----4----5----5-------------------------------
--1----5----6----6-------------------------------
--2----6----6----6-------------------------------
--2----6----4----4-------------------------------
--0----4----4----4-------------------------------

That’s all u need to know

Enjoy
            
Tabs too difficult? Try these video lessons and learn fast.


comments powered by Disqus
↑ Back to top | Tablatures and chords are parodies/interpretations of the original songs. You may use it for private study, scholarship, research or language learning purposes only