» » »

Cookie Jar Tabs (ver.2)

Artists:  A B C D E F G H I J K L M N O P Q R S T U V W X Y Z # 

Cookie Jar Tabs (ver.2)

Jack Johnson
Rating:
0/5 (0 votes)
Tabs too difficult? Try these video lessons and learn fast.
                this riff continues all the way through the song

   F#major   C#minor   Bminor   C#minor
E|-----2---------4--------2--------4----|
B|-----2---------5--------3--------5----|
G|-----3---------6--------4--------6----|  ill let you figer out the strumming (it's easy)
D|-----4---------6--------4--------6----|
A|-----4---------4--------2--------4----|
E|-----2--------(4)---------------(4)---|


    F#major   C#minor        Bminor   C#minor
E|-----2---------4--------------2--------4----|
B|-----2---------5--------------3--------5----|
G|-----3---------6--------------4--------6----|  add this in every now and then
D|-----4---------6------4h6p----4--------6----|
A|-----4---------4--4h7------7--2--------4----|
E|-----2--------(4)---------------------(4)---|
            
Tabs too difficult? Try these video lessons and learn fast.


comments powered by Disqus
↑ Back to top | Tablatures and chords are parodies/interpretations of the original songs. You may use it for private study, scholarship, research or language learning purposes only