» » »

Jack Johnson, Constellations Tabs (ver.4)

Artists:  A B C D E F G H I J K L M N O P Q R S T U V W X Y Z # 

Constellations Tabs (ver.4)

Jack Johnson Tabs
Rating:
0/5 (0 votes)
Constellations lessons Tabs too difficult? Try these video lessons and learn fast
                
Capo on 1

Intro
 
|-3-p-2-h-3-h-5-p-3-p-2----------|-1----------5-p-3-p-1-----------|
|------------------------3-------|----1-------------------1-------|
|--------------------------------|--------2-----------------------|
|--------------------------------|--------------------------------|
|--------------------------------|--------------------------------|
|(3)-----------------------------|(1)-----------------------------|


|--------------------------------|------------2-p-0---------------|
|-1----------3---p---1-----------|-3------------------3-----------|
|----0-------------------0-------|----2-------------------2-------|
|--------2-----------------------|--------4-----------------------|
|(3)-----------------------------|(5)-----------------------------|
|--------------------------------|--------------------------------|


(If you're like me and don't have a bass player handy you can play
the notes in parenthesis to fill out the Intro)


After Intro it goes into this

Verse Part A

|----3---3---5---5---3---3---2---|3-------------------------------|
|----3---3---3---3---3---3---3---|3---3---3---3-------------------|
|----4---4---4---4---4---4---4---|4---4---4---4-------------------|
|----5---5---5---5---5---5---5---|5---5---5---5-------------------|
|--------------------------------|--------------------------------|
|--------------------------------|--------------------------------|


|----3---3---3-------3---3---3---|----3---3---3-------3---3---3---|
|----5---3---3-------3---3---3---|----3---3---3-------3---3---3---|
|----5---5---5-------5---5---5---|----5---5---5-------5---5---5---|
|----5---5---5-------5---5---5---|----5---5---5-------5---5---5---|
|--------------------------------|--------------------------------|
|--------------------------------|--------------------------------|


Verse Part B

|----0------0-----|
|----1------3-----|
|----0------2-----|
|----2------0-----|
|----3------0-----|
|-----------3-----|


 Chorus
   G     F     C     D
|--3-----1-----3-----5---------------|
|--3-----1-----5-----7---------------|
|--4-----2-----5-----7---------------|
|--5-----3-----5-----7---------------|
|--5-----3-----3-----5---------------|
|--3-----1---------------------------|


 Middle Solo
|----3-----------5---------------|----7-----------5---------------|
|--------0-h-1-------1-p-0---3---|--------3-\-1-------1-p-0---3---|
|--------------------------------|--------------------------------|
|--------------------------------|--------------------------------|
|--------------------------------|--------------------------------|
|--------------------------------|--------------------------------|


|----0---------------------------|----3---------------------------|
|--------3-p-1-------3-------3---|--------3---3-----0-3-1/3---3---|
|----------------0h2----2/4------|----------------0---------------|
|--------------------------------|--------------------------------|
|--------------------------------|--------------------------------|
|--------------------------------|--------------------------------|


|----3-----------5-----------3---|----7---5-3-0--3/5------3-p-0---|
|--------0---3-------0-h-3-------|--------------------------------|
|--------------------------------|--------------------------------|
|--------------------------------|--------------------------------|
|--------------------------------|--------------------------------|
|--------------------------------|--------------------------------|


|----3-p-0---------------3-p-0---|----0---------------2-----------|
|------------3-------3-----------|------------3-----------3-------|
|----------------2/4-------------|--------0-------------------0---|
|--------------------------------|----------------4---------------|
|--------------------------------|--------------------------------|
|--------------------------------|--------------------------------|

At the end repeat the beginning Intro again
            
Submit corrections

comments powered by Disqus
↑ Back to top | Jack Johnson Tabs for Constellations. Lyrics for acoustic guitar and electric guitar. Tablatures and chords are parodies/interpretations of the original songs. You may use it for private study, scholarship, research or language learning purposes only