» » »

Jack Johnson, Constellations Tabs (ver.2)

Artists:  A B C D E F G H I J K L M N O P Q R S T U V W X Y Z # 

Constellations Tabs (ver.2)

Jack Johnson Tabs
Rating:
0/5 (0 votes)
Constellations lessons Tabs too difficult? Try these video lessons and learn fast
                ************************
*Jack Johnson          *
*Constellations        *
************************
This is a modified more correct version of my 
previous tab. 

Tuning:Standard; Capo on 1st fret
NOTE: All tabs relative to capo.




INTRO

E--3-2-3-5-3-2----1-----5/3-1------------------------2p0-------------]\
B--------------3----1---------1----1----3-1----3---------3-----------] \
G---------------------2---------0----0------0----2---------2---------]  \2
D--------------------------------------2-------0~--4-----------------]  /X
A----------------------------------3-LET RING------------------------] /
E—-3~LET RING~~---1-LET RING~~~--------------------------------------]/

VERSE
E-------3---5--3--2--3--x--3-3-3-3---------0--0----------------------]
B-------0---0--0--0--0--3—-5-3-3-3---------1--3----------------------] 
G-------0---0--0--0--0--0--5-5-5-5---then--0--2----------------------]  
D-------x---x--x--x--x--x--5-5-5-5---------2—-0----------------------]  
A-------x---x--x--x--x--x--3-3-3-3---------3--x----------------------] 
E—------3---3--3--3--3--3---------------------3----------------------]

Chorus (chords)

E-----5---1--3--5----------------------------------------------------]
B-----5---1--5--7----------------------------------------------------]
G-----4---4--5--7---Figure out the strumming-------------------------]
D-----5---3--5--7----------------------------------------------------]
A-----5---3--3--5----------------------------------------------------]
E-----3---1----------------------------------------------------------]



Solo 
99% correct. 

E--3----5---3--7---5---3--3-----------3--------------3-----5---------]
B--------------------------3-----0-----33----0-1/3---------------5---]
G----4/5—5/4----7/5—5/4-----4-0h2--/4-----0h2----------4/5---5/4-----]
D--------------------------------------------------------------------]
A--------------------------------------------------------------------]
E--------------------------------------------------------------------]


E--7-5/3---3/5-3---3p0-----3p0--3---3--------------------------------]
B--------0-------5----3---3-------3—-3p0-----------------------------]
G-----------------------/4-------0-0---------------------------------]
D--------------------------------------------------------------------]
A--------------------------------------------------------------------]
E--------------------------------------------------------------------]

Verse
Chorus
Intro 

The End!!!
            

comments powered by Disqus
↑ Back to top | Jack Johnson Tabs for Constellations. Lyrics for acoustic guitar and electric guitar. Tablatures and chords are parodies/interpretations of the original songs. You may use it for private study, scholarship, research or language learning purposes only