>
 >
Bad Fish

Bad Fish Guitar Tabs

Jack Johnson - Bad Fish chords, tabs, tablatures, lyrics

Guitar lessons | Add/correct | Request | Top 50 tabs Artists:  A B C D E F G H I J K L M N O P Q R S T U V W X Y Z 0-9

Bad Fish Guitar Tabs – Jack Johnson

CD, Sheet music, Poster

Do you like Bad Fish? Share with your friends now
ChordsChords v2TabsTabs v2Ukulele
              READ THIS FIRST BEFORE PLAYING THIS SONG!!
simple pretty much....remember if your a J.J. listener youll notice his rythem...its
he hits the strings with his closed hand and stops the strings from playing... you know 
i mean thats why your looking up JJ's tabs....so im just gonna put the tabs only once
if you play it with the music youll know what i mean...JUST LISTEN TO THE SONG AND GO 
IT!!!!I figured out the sencond guitar you hear in the background but it will be too 
if i put both
                        (play this tab with the lyric)
When you grab a hold of me, tell me that Ill never be set free, but Im parasite,
crawling, Ill slept into the night.

E|------------------------------------------------------------------------|
G|------------------------------------------------------------------------|
B|------------------------------------------------------------------------|
D|-3-3---3-3--6-6---6-6--13-13---13-13------------------------------------|
A|-3-3---3-3--6-6---6-6--13-13---13-13------------------------------------|
E|-1-1---1-1--3-3---3-3--11-11---11-11------------------------------------|
                      (same here and so on)
2 pints of booze, tell me are you a badfish too?(are you a bad fish too?)

E|------------------------------------------------------------------------|
G|------------------------------------------------------------------------|
B|------------------------------------------------------------------------|
D|-3-3---3-3--8-8---8-8--13-13---13-13--3-3---3-3-------------------------|
A|-3-3---3-3--8-8---8-8--13-13---13-13--3-3---3-3-------------------------|
E|-1-1---1-1--6-6---6-6--11-11---11-11--1-1---1-1-------------------------|

Aint got no money to spend, and I hope this night will never end, lord knows that Im
wont somebody get me out of this reef?

E|---------------------------------------------------------------------------------|
G|---------------------------------------------------------------------------------|
B|---------------------------------------------------------------------------------|
D|-8-8---8-8--3-3---3-3--8-8---8-8--3-3---3-3--8-8---8-8--3-3---3-3--8-8---8-8--6--|
A|-8-8---8-8--3-3---3-3--8-8---8-8--3-3---3-3--8-8---8-8--3-3---3-3--8-8---8-8--6--|
E|-6-6---6-6--1-1---1-1--6-6---6-6--1-1---1-1--8-8---8-8--1-1---1-1--6-6---6-6--3--|

And baby your a big blue whale, Ill grab the reef when all duck diving fails, and I
swim but I wish I had never learned, cuz the water's too poluted with germs

E|-----------------------------------------------------------------------|
G|-----------------------------------------------------------------------|
B|-----------------------------------------------------------------------|
D|-3---6---13---3-------3---6---13---3-----------------------------------|
A|-3---6---13---3-------3---6---13---3-----------------------------------|
E|-1---3---11---1-------1---3---11---1-----------------------------------|

Dive deep when its 1o feet over head grab the reef thats underneath my bed (underneath 
bed)


E|-----------------------------------------------------------------------|
G|-----------------------------------------------------------------------|
B|-----------------------------------------------------------------------|
D|-3-3---3-3--8-8---8-8--13-13---13--13--3-3---3-3-----------------------|
A|-3-3---3-3--8-8---8-8--13-13---13--13--3-3---3-3-----------------------|
E|-1-1---1-1--6-6---6-6--11-11---11--11--1-1---1-1-----------------------|


Aint got no quarrels with God,(no,no) aint got no time to grow old, Lord Knows that Im
wont somebody kick me out of this reef?

E|---------------------------------------------------------------------------------|
G|---------------------------------------------------------------------------------|
B|---------------------------------------------------------------------------------|
D|-8-8---8-8--3-3---3-3--8-8---8-8--3-3---3-3--8-8---8-8--3-3---3-3--8-8---8-8--6--|
A|-8-8---8-8--3-3---3-3--8-8---8-8--3-3---3-3--8-8---8-8--3-3---3-3--8-8---8-8--6--|
E|-6-6---6-6--1-1---1-1--6-6---6-6--1-1---1-1--6-6---6-6--1-1---1-1--6-6---6-6--3--|

And theres a steel train coming in, I would take it if I could, and I would not lie to
because someday morning soon will come, things will be eaier to say upon the microphone
Im a boss dj, Ill walk upon the stage like a worst dried land, a boos dj aint nothing 
a man no trouble no fuzz I know why


E|------------------------------------------------------------------------|
G|------------------------------------------------------------------------|
B|------------------------------------------------------------------------|
D|-3-3-8-8-3-3-8-8-3-3-8-8-3-3-8-8-3-3-8-8-3-3-8-8-3-3-8-8-3-3-8-8--11--8-|
E|-3-3-8-8-3-3-8-8-3-3-8-8-3-3-8-8-3-3-8-8-3-3-8-8-3-3-8-8-3-3-8-8--11--8-|
E|-1-1-6-6-1-1-6-6-1-1-6-6-1-1-6-6-1-1-6-6-1-1-6-6-1-1-6-6-1-1-6-6--9---6-|

Its so nice, I wanna hear the same song twice, its so nice I wanna hear the same song
a days all the songs on the radio they all drive me crazy....

E|-----------------------------------------------------------------------|
G|-----------------------------------------------------------------------|
B|-----------------------------------------------------------------------|
D|-3-3-8-8-3-3-8-8-3-3-8-8-3-3-8-8--10-10--8-8--10-10--8-----------------|
A|-3-3-8-8-3-3-8-8-3-3-8-8-3-3-8-8--10-10--8-8--10-10--8-----------------|
E|-1-1-6-6-1-1-6-6-1-1-6-6-1-1-6-6--8--8---6-6--8--8---6-----------------|

sick you got all the way down here??!?! nice.. hope you liked it ...it took me a long
to make this so i hope you enjoyed it...





Comments


Popular Jack Johnson tabs & chords
Cookie Jar Bass Tabs
Middle Man 2 Bass Tabs
Banana Pancakes 2 Chords
Breakdown 4 Chords
Flake Tabs
My Little Girl 1 Tabs
Traffic In The Sky Tabs
A Brokedown Melody Ukulele
Constellations Ukulele
Its All Understood Ukulele


Song lyrics



↑ Back to top | Tablatures and chords are parodies/interpretations of the original songs. You may use it for private study, scholarship, research or language learning purposes only
© 2014 AZChords.com Contact us | Privacy policy | DMCA | Add/correct tabs | Request tabs | Top 50 tabs