>
 >
Adrift 1

Adrift 1 Guitar Tabs

Jack Johnson - Adrift 1 chords, tabs, tablatures, lyrics

Guitar lessons | Add/correct | Request | Top 50 tabs Artists:  A B C D E F G H I J K L M N O P Q R S T U V W X Y Z 0-9

Adrift 1 Guitar Tabs – Jack Johnson

CD, Sheet music, Poster

Do you like Adrift 1? Share with your friends now
ChordsTabsTabs v2Tabs v3Tabs v4Ukulele
JACK JOHNSON - ADRIFT

those which are like (1) are normal chords, play pulling. listen how jack plays 
it! (be accurate the rhythm)

intro and start of verse: (..and almost the whole song)            
E]-----------------------------------------------------|
B]--1----(1)--1--1----(1)--1--1----(1)--1--1----(1)--1-|
G]----0------------0------------0------------0---------|
D]-------(2)----------(2)----------(2)----------(2)----|
A]--3----(3)-----2----(2)-----0------------------------|
E]-----------------------------------------3----(3)----|

end of the verse: (..to sing to me..)
E]--------(1)--1---------5------3--3/1----|
B]-1--1---(1)---1-------------------------|
G]-----2--(2)--------2/5----5/4-----------|
D]--------(3)-----------------------------|
A]-3------(3)-----------------------------|
E]----------------------------------------|

Your voice is adrift I can't expect it to sing to me
As if I was the only one
I'll follow you, a leaf thats followin' the sun

keep going at same rhythm and pulling, but the chords change a little bit:

             G
When will my weight be too much for you?
                Am           G     F
When will these ideas really be my own?
(back to the old cyrcle)
Cause this moment keeps on moving
We were never meant to hold on

This was a scene worth waking up for
When I woke up
You planted me in my own pod
Don't know why, but somehow it just feels so wrong

When you said I will be lonely
When you rise again I'll have become the sun
I'll shine down upon you
As if you were the only one

Your voice is your own I can't protect it
You'll have to sing a verse that no ones ever known
Cause no one ever sings alone

Your weight will never be too much for me
Your ideas have always be your own
And this moment keeps on movin'
We were never meant to hold on.....





Comments


Popular Jack Johnson tabs & chords
Good People Bass Tabs
Hope Bass Tabs
Mediocre Bad Guys Chords
Breakdown 3 Tabs
Flake Live 2 Tabs
Gone 2 Tabs
Red Wine Mistakes Mythology Tabs
Same Girl Tabs
Banana Pancakes 2 Ukulele
Rocky Racoon Ukulele


Song lyrics



↑ Back to top | Tablatures and chords are parodies/interpretations of the original songs. You may use it for private study, scholarship, research or language learning purposes only
© 2014 AZChords.com Contact us | Privacy policy | DMCA | Add/correct tabs | Request tabs | Top 50 tabs