» » »

Teachers Pet Tabs (ver.2)

Artists:  A B C D E F G H I J K L M N O P Q R S T U V W X Y Z # 

Teachers Pet Tabs (ver.2)

Jack Black
Rating:
0/5 (0 votes)

Hard to play? Try these video lessons and learn fast.
                This is Jack Black's geetar solo from the movie "School of Rock."  I didn't tab 
Zach's solo because there are already correct versions 

Legend:
b-bend
(#)-what the bent note should sound like
rb-release bend(bring the bent note back to the original note)
h-hammer on
p-pull off
~-vibrato
^-play the notes while holding the bend

Solo 1:
e|-----------7----------------------------------------------------------|
b|-------------10-7-----------------------------------------------------|
g|----9b(11)--------9-7--7-9-7------9(11)--9^--9^--9^--9rbp7--9--7------|
d|----------------------9-----------------------------------------------|
a|----------------------------------------------------------------------|
E|----------------------------------------------------------------------|

e|------------------------------10h12p10-----10--10---12b(14)--12b(14)--|
b|----10b(12)rb--10~~~---10h12------------12----------------------------|
g|----------------------------------------------------------------------|
d|----------------------------------------------------------------------|
a|----------------------------------------------------------------------|
E|----------------------------------------------------------------------|

e|----10h12p10----10-10-10--------------------------10-12-10-12b(14)rb--|
b|-------------12-----------10h12p10--10--10h12p10----------------------|
g|----------------------------------------------------------------------|
d|----------------------------------------------------------------------|
a|----------------------------------------------------------------------|
E|----------------------------------------------------------------------|

e|----12--10----10h12p10~~----------------------------------------------|
b|-----------12---------------------------------------------------------|
g|----------------------------------------------------------------------|
d|----------------------------------------------------------------------|
a|----------------------------------------------------------------------|
E|----------------------------------------------------------------------|

rock on
            
Hard to play? Try these video lessons and learn fast. | Correct




comments powered by Disqus
↑ Back to top | Tablatures and chords are parodies/interpretations of the original songs. You may use it for private study, scholarship, research or language learning purposes only