» » »

Jack Black, Computerman Tabs (ver.1)

Artists:  A B C D E F G H I J K L M N O P Q R S T U V W X Y Z # 

Computerman Tabs (ver.1)

Jack Black Tabs
 Rating:
3.7/5 (6 votes)
Computerman lessons Tabs too difficult? Try these video lessons and learn fast
                





|------------------------------------------------------------------------|
|-----1---------------------0---1--1-------------------------------------|
|-----2--0--------1---------1---2--2--0--------0x------------------------|
|-----2-----0--2-----2----------3--3-----0h2------------0-----0----------|
|--0-----------2----------------3--3------------------0---0h2--0---------| X2
|------------------------0-----------------------------------------------|

|-----------------------------------------------------------0----------------|
|------1-----------------------0---1-1-----------------------1---------------|
|------2--0---------1---------1----2-2-----------2---1--------2--------------|
|------2-----0--2------2-----------3-3-----------2---2---------2-------------|
|---0-----------2------------------3-3---0--2----0---2----------0------------|
|---------------------------0--------------------------0---------------------|
            
Submit corrections

comments powered by Disqus
↑ Back to top | Jack Black Tabs for Computerman. Lyrics for acoustic guitar and electric guitar. Tablatures and chords are parodies/interpretations of the original songs. You may use it for private study, scholarship, research or language learning purposes only