» » »

Jackass, Theme Tune Tabs (ver.1)

Artists:  A B C D E F G H I J K L M N O P Q R S T U V W X Y Z # 

Theme Tune Tabs (ver.1)

Jackass Tabs
Rating:
0/5 (0 votes)
Hard to play? Try these video lessons and learn fast.
                Please send any comments to 

Key= / Slide up
    () Hold Note

e-----------------------
B-3-5-7-(7)-5-3-1-0-0-0-
G-4-5-7-(7)-5-4-2-0-0-0-
D-----------------------
A-----------------------
E-----------------------


e--------------------------
B-1-3-0-0-0-3-5-7--7--7----
G-2-4-0-0-0-4-5-7--7--7----
D--------------------------
A--------------------------
E--------------------------


e-----------------------------------------------
B-3-5-7--7--7--7-5-3-1-0------------------------
G-4-5-7--7--7--7-5-4-2-0------------------------
D-----------------------------------------------
A-----------------------------------------------
E------------------------------5/6-(6)------3-(3)
            

comments powered by Disqus
↑ Back to top | Jackass Tabs for Theme Tune. Lyrics for acoustic guitar and electric guitar. Tablatures and chords are parodies/interpretations of the original songs. You may use it for private study, scholarship, research or language learning purposes only