» » »

Steve-O Tabs (ver.1)

Artists:  A B C D E F G H I J K L M N O P Q R S T U V W X Y Z # 

Steve-O Tabs (ver.1)

Jackass
Rating:
0/5 (0 votes)

Hard to play? Try these video lessons and learn fast.
                career ending



steve-o











eb:-----------------------------------------------------------------|
Bb:-----------------------------------------------------------------|
Gb:-7/6-4--------9--7--4--4-4-4-4--7/6--4---4-4-4-4--2--4-4--2--4-4-|
Db:-5/4-2--------7--5--2--2-2-2-2--5/4--2-0-2-2-2-2--0--2-2--0--2-2-|
Ab:-------0-0-0-----------------------------------------------------|
Eb:-----------------------------------------------------------------|

eb:---------------------------------------------------------------------------------|
Bb:---------------------------------------------------------------------------------|
Gb:-7/6-4--4-4-4-4--9--7--4--4-4-4-4--7/6--4---4-4-4-4--2--4-4--2--4-4--------------|
Db:-5/4-2--2-2-2-2--7--5--2--2-2-2-2--5/4--2-0-2-2-2-2--0--2-2--0--2-2--------------|
Ab:---------------------------------------------------------------------------------|
Eb:---------------------------------------------------------------------------------|

repeat 3 times
eb:------------------------------------------------|
Bb:------------------------------------------------|
Gb:-7---------7---------7---------7---------7/9--9-|
Db:-5---------5---------5---------5---------5/7--7-|
Ab:---0-0-0-0---0-0-0-0---0-0-0-0---0-0-0-0--------|
Eb:------------------------------------------------|

end
eb:--------------------------------------------------------|
Bb:--------------------------------------------------------|
Gb:-7---------7---------7---------7---------7/9--9---4-----|
Db:-5---------5---------5---------5---------5/7--7---2-----|
Ab:---0-0-0-0---0-0-0-0---0-0-0-0---0-0-0-0----------------|
Eb:--------------------------------------------------------|
            
Hard to play? Try these video lessons and learn fast. | Correct




comments powered by Disqus
↑ Back to top | Tablatures and chords are parodies/interpretations of the original songs. You may use it for private study, scholarship, research or language learning purposes only