» » »

Chris Pontius Tabs (ver.1)

Artists:  A B C D E F G H I J K L M N O P Q R S T U V W X Y Z # 

Chris Pontius Tabs (ver.1)

Jackass
Rating:
0/5 (0 votes)

Hard to play? Try these video lessons and learn fast.
                french song (i left my mustache)












TUNE DOWN 2 STEP 

 
|-----------------------------------------------------------------------| 
|-----------------------------------------------------------------------|
|-----------------------------------------------------------------------| 
|-12--12-12--12--12-12--9--9-9--9--9-9--7--7-7--7--7-7--7-7-7-7--7--7-7-| 
|-12--12-12--12--12-12--9--9-9--9--9-9--7--7-7--7--7-7--7-7-7-7--7--7-7-| 
|-10--10-10--10--10-10--7--7-7--7--7-7--5--5-5--5--5-5--5-5-5-5--5--5-5-|


|------------------------------------------------------------------| 
|------------------------------------------------------------------|
|-----------------------11--11-11--11-11-11------------------------| 
|-12--12-12--12--12-12--9---9--9---9--9--9---5--5-5--5--5-5--5--7--| 
|-12--12-12--12--12-12--9---9--9---9--9--9---5--5-5--5--5-5--5--7--| 
|-10--10-10--10--10-10-----------------------3--3-3--3--3-3--3--5--|

 
|-----------------------------------------------------------------------| 
|-----------------------------------------------------------------------|
|-----------------------------------------------------------------------| 
|-12--12-12--12--12-12--9--9-9--9--9-9--7--7-7--7--7-7--7-7-7-7--7--7-7-| 
|-12--12-12--12--12-12--9--9-9--9--9-9--7--7-7--7--7-7--7-7-7-7--7--7-7-| 
|-10--10-10--10--10-10--7--7-7--7--7-7--5--5-5--5--5-5--5-5-5-5--5--5-5-|
            
Hard to play? Try these video lessons and learn fast. | Correct




comments powered by Disqus
↑ Back to top | Tablatures and chords are parodies/interpretations of the original songs. You may use it for private study, scholarship, research or language learning purposes only