» » »

Jaci Velasquez, On My Knees Tabs (ver.1)

Artists:  A B C D E F G H I J K L M N O P Q R S T U V W X Y Z # 

On My Knees Tabs (ver.1)

Jaci Velasquez Tabs
Rating:
0/5 (0 votes)
Hard to play? Try these video lessons and learn fast.
                on my knees

Intro

E ------------------------------------0-----------------------|
B -------3-----3-------3-----3-----3-----1--0--0----0h1--0-0--|
G -----0-----0-------0-----0----------------------2-----------| 
D ---4-----4-------4-----4------------------------------------|  2x
A ---------------------------------3-----3-----2--------------|
E -3-------------0--------------------------------------------|

Verse 1

E ------------------------------------0------------------------|
B -------3-----3-------3-----3--3---3-----1--0--0----0h1--0-0--|
G -----0-----0-------0-----0----------------------2------------|        
D ---4-----4-------4-----4-------------------------------------|
A ----------------------------------3-----3-----2--------------|
E -3-------------0---------------------------------------------|
  the are days.  when i feel    the best of me is ready to...

E ------------------------------------0------------------------|
B -------3-----3-------3-----3--3---3-----1--0--0----0s1--0-0--|
G -----0-----0-------0-----0----------------------2------------|        
D ---4-----4-------4-----4-------------------------------------|  
A ----------------------------------3-----3-----2--------------|
E -3-------------0------------------------------------------2--|
  the there days. when i feel   i'm letting go    

E ---0--2--2s3--2---------0---0--2--3--3s5--7--5----------|
B -0---------------3---0--------------------------7-------|
G --------------------------------------------------------|     
D ------0-------0----------------0-----0----0-------------|
A ------------------------3-------------------------------|
E --------------------------------------------------------|

chorus

E -7--5--2--2s3--2s3--------0---3--2--------------------------|
B --------------------3--0------------3--1--0s1---------------|
G -----------------------------------------------2--0--2--0---|
D ----0--0-------0--------------0-----------------------------|
A -8------------------------3------------3----------------2---|
E ------------------------------------------------------------|

E -0--2--3--5--3--0--2---0s2--0--2----2--3-----2--3------------|
B ----------------------------------3-------3-------1--0-----3-|
G --------------------------------------------------------2----|
D ----0--------------------------------------------------------|
A -------------3-----3-----------3--0-------2-------3--------2-|
E ----------3--------------------------------------------------|

repeat intro

verse2: same as verse 1
i can be, in a crowd 
or by myself almost anywhere


repeat chorus

end!!

hope n magustuhan nyo ung ginawa ko=)
kung my question po kayo bout 
sa gnwa kung tabs txt me nlng 09091141502 thx.

SBCE.. sunday na anniv. namin=)
            

comments powered by Disqus
↑ Back to top | Jaci Velasquez Tabs for On My Knees. Lyrics for acoustic guitar and electric guitar. Tablatures and chords are parodies/interpretations of the original songs. You may use it for private study, scholarship, research or language learning purposes only