» » »

Jaci Velasquez, Imagine Me Without You Tabs (ver.1)

Artists:  A B C D E F G H I J K L M N O P Q R S T U V W X Y Z # 

Imagine Me Without You Tabs (ver.1)

Jaci Velasquez Tabs
 Rating:
4/5 (4 votes)
Imagine Me Without You lessons Tabs too difficult? Try these video lessons and learn fast
                IMAGINE ME WITHOUT YOU
INTRO: 
KEY OF D, CHANGE TO KEY OF F# 

e------------------------------------------|
B------------------------------------------|
G-----6h7-9-7------6h7-9-7-----------------|
D--7-9-------7--5-7-------7---4-5-7-7-5-4--|
A------------------------------------------|
E------------------------------------------|

|---------------------7--|
|--5--------------5-7----|
|---4-------4-6h7--------|
|----4-4-5-7-------------|
|------------------------|
|------------------------|


I.
		     Bm		      A
	As long as stars shine out from Heaven
		  G			  D
	And the rivers run into the sea
		    Em		
	‘Till the end of time forever
		     F#
	You’re the only love I need

	
	e----------|   
	B----------|   
	G----------|    
	D----------|   
	A--9h10h9--|   
	E----------|   


II.
		Bm			 A
	In my life You’re all that matters
	      G		  D
	In my eyes the only truth I see
		  Em			
	When my hopes and dreams have shattered
		     F#
	You’re the one that’s there for me

Refrain
			    G	   A
	When I found You I was blessed
			    F#m	    F#      C# 
	And I will never leave You, I need You

Chorus
		     F#	
	Imagine me without You
			      C#
	I’ve been lost I’m so confused
		     B
	I wouldn’t last the day
	    F#				C#
	I’d be afraid without You there to see me through
		     F#	
	Imagine me without You
			      C#     B
	Lord You know it’s just impossible
	   Bm			 F#
	Because of You, it’s all brandnew
	    C#	     D#m	G#m
	My life is now worthwhile
		   C#		  F#  	    F#m
	I can’t imagine me without You

	E |------------------------------------|
	B |---------------7---7-5---------5----|
	G |------------4-6-------7-7---6-7--4--|
	D |-------4-6h7------------------------|
	A |--4h5-7-----------------------------|
	E |------------------------------------|


III.
		   Bm			A
	When You caught me, I was fallin
			G		 D
	You’re love lifted me back on my feet
		    Em
	It was like You heard my callin
		  F#
	And You rushed to set me free


Sequence:

	V – I			Refrain
	V – II			Chorus
	Refrain		Adlib
	Chorus			Chorus
	V – III		Ending

ADLIB:

e---------------------------------------|---------------|
B------------9-10-9---------------------|---------------|
G-------9-11-------11--9h8-6--6---------|--------6h7-9--|
D--9-11----------------------9---9-8----|---6-8h9-------|
A------------------------------------9--|--9------------|
E---------------------------------------|---------------|



e-------------------------------------------|
B-------------------------------------------|
G--7h6h7--7-9-11-11-9-7-7---7-7-6-6-6-4-2---|
D--------------9--9-7-5-5---5-5----------4--|
A-------------------------------------------|
E-------------------------------------------|
            
Submit corrections

comments powered by Disqus
↑ Back to top | Jaci Velasquez Tabs for Imagine Me Without You. Lyrics for acoustic guitar and electric guitar. Tablatures and chords are parodies/interpretations of the original songs. You may use it for private study, scholarship, research or language learning purposes only