» » »

Flower In The Rain Tabs (ver.3)

Artists:  A B C D E F G H I J K L M N O P Q R S T U V W X Y Z # 

Flower In The Rain Tabs (ver.3)

Jaci Velasquez
Rating:
0/5 (0 votes)

Hard to play? Try these video lessons and learn fast.
                -------------------------------------------------------------------------------
                             SONG NAME-Flower in the rain
                             Band Name-Jaci velasque
                                
-------------------------------------------------------------------------------

Tuning:EADGBe (stantard)
   
   Hey guys !!! actually the song is in the key of F so place a 'capo'on the 3rd fret.
       make your self feel like your playn in the key of D....enjoy!!!!


   Intro:

    
                                                       let ring--------  
e|---------0------0-|----oh2--0--------|----------0--2----|---------------------|
B|-------3---3------|------------3-----|--------3-------3-|--(3)--2--0----------|
G|-----2-------2----|--------------2---|-----0------------|-------------4-2-0---|
D|---0--------------|--0-------------0-|------------------|---------------------|
A|------------------|------------------|------------------|---------------------|
E|------------------|------------------|--3---------------|---------------------|
                                                              let ring 
e|---------0------0-|----oh2--0--------|----------0--2----|-----------------------|
B|-------3---3------|------------3-----|--------3-------3-|--(3)------------------|
G|-----2-------2----|--------------2---|-----0------------|--(0)------------------|
D|---0--------------|--0-------------0-|------------------|-----------------------|
A|------------------|------------------|------------------|--(3)-------5--4-------|
E|------------------|------------------|--3---------------|---------2-------------|



     Verse:


e|------------------------|----------------|-----------------------|-----------------|
B|-----------2----------2-|----3--2--------|-----------2--------2--|-----3-2---------|
G|--------4------4--------|----------4-----|--------4-----4--------|----------4------|
D|-----4------------4-----|--4----------4--|-----5-----------5-----|---5---------5---|
A|--2---------------------|----------------|--2--------------------|-----------------|
E|------------------------|----------------|-----------------------|-----------------|

e|---------------------|------------------|-----------------|-------------------|
B|------------3--------|--------3---------|--------2--------|---------3---------|
G|---------0-----0-----|------0----0------|------0----0-----|---------2---------|
D|------2-----------2--|----2---------2---|----2---------2--|------5--5--5------|
A|---0-----------------|--0---------------|--0--------------|----5----5-----5---|
E|---------------------|------------------|-----------------|--3----------------|

e|-----------2---------|
B|--------------2------|
G|--------4---------3--|
D|-----4---------------|
A|--2------------------|
E|---------------------|


e|------------------------|----------------|-----------------------|-----------------|
B|-----------2----------2-|----3--2--------|-----------2--------2--|-----3-2---------|
G|--------4------4--------|----------4-----|--------4-----4--------|----------4------|
D|-----4------------4-----|--4----------4--|-----5-----------5-----|---5---------5---|
A|--2---------------------|----------------|--2--------------------|-----------------|
E|------------------------|----------------|-----------------------|-----------------|

e|---------------------|------------------|-----------------|-------------------|
B|------------3--------|--------3---------|--------2--------|---------3---------|
G|---------0-----0-----|------0----0------|------0----0-----|---------2---------|
D|------2-----------2--|----2---------2---|----2---------2--|------5--5--5------|
A|---0-----------------|--0---------------|--0--------------|----5----5-----5---|
E|---------------------|------------------|-----------------|--3----------------|
                           let ring
e|---------------------|-------|
B|---------3-----------|---3---|
G|-------0----0--------|---0---|
D|-----2---------2-----|---2---|
A|--0---------------0--|---0---|
E|---------------------|-------|




    Chorus: D    G       A          (2 times)
            G   F#m/5+   Em    A


      D           G         A

e|----2------|----3------|----0-------|
B|----3------|----3------|----2-------|
G|----2------|----0------|----2-------|
D|----0------|----0------|----2-------|
A|-----------|----2------|----0-------|
E|-----------|----3------|------------|


     G           F#m/5+          Em            A

e|---3-------|--------------|--------------|-----0--------------|
B|---3-------|--------------|--------------|-----2--------------|
G|---0-------|--------------|----0---------|-----2--------------|
D|---0-------|----0---------|----2---------|-----2--------------|
A|---2-------|----0---------|----2---------|-----0--------------|
E|---3-------|----1---------|----0---------|--------------------|





Bridge: C   D  Bmajor  C  D
        C   A





        C         D         B major          C             D

e|-----3-------|----5-------|----2--------|-----3-------|----5-------|
B|-----5-------|----7-------|----4--------|-----5-------|----7-------|
G|-----5-------|----7-------|----4--------|-----5-------|----7-------|
D|-----5-------|----7-------|----4--------|-----5-------|----7-------|
A|-----3-------|----5-------|----2--------|-----3-------|----5-------|
E|-------------|------------|-------------|-------------|------------|


        C           A
e|-----3-------|---------------|
B|-----5-------|-----2---------|
G|-----5-------|-----2---------|
D|-----5-------|-----2---------|
A|-----3-------|-----0---------|
E|-------------|---------------|


************************************


| /   slide up
| \   slide down
| h   hammer-on
| p   pull-off
| ~   vibrato
| +   harmonic
| x   Mute note
| b   Bend
| pb  Pre-bend
| br  Bend release
| pbr Pre-bend release
| brb Bend release bend

************************************
            
Hard to play? Try these video lessons and learn fast. | Correct




comments powered by Disqus
↑ Back to top | Tablatures and chords are parodies/interpretations of the original songs. You may use it for private study, scholarship, research or language learning purposes only