» » »

Jace Everett, Bad Things Tabs (ver.4)

Artists:  A B C D E F G H I J K L M N O P Q R S T U V W X Y Z # 

Bad Things Tabs (ver.4)

Jace Everett Tabs
Rating:
5/5 (4 votes)
Bad Things lessons Tabs too difficult? Try these video lessons and learn fast
                JACE EVERETT
BAD THINGS
standard tuning
no timings included, just what he plays.

INTRO

e---------------|
B---------------|
G---------------|
D---------------|
A---------------|
E-0-2-0-2b3-2-0-|

e-------|
B-------|
G-------|
D-2-2-2-|
A-2-2-2-|
E-0-3-0-| X2

e----7-|
B--78--|
G-9----|
D------|
A------|
E------|

VERSE
just play around with strumming and areggios of these chords
e-0---0---0---0-|
B-0---0---0---0-|
G-0---2---0---0-|
D-2---1---2---2-|
A-2---2---2---2-|
E-0-------0---0-|
fills for slide guitar:
e-----------|-12/-|
B-17~~~12~~~|-12/-|
G-----------|-12/-|
D-----------|-----|
A-----------|-----|
E-----------|-----|

CHORUS
strum each chord once
e-0---0---0---0---0---0---0-|
B-1---0---0---0---0---0---0-|
G-2---0---2---0---0---2---0-|
D-2---2---1---2---2---1---2-|
A-0---2---2---2---2---2---2-|
E-----0-------0---0-------0-|
slide fill:
e-/12--------|
B-----12-----|
G--------12/-|
D------------|
A------------|
E------------|
lead fill:
e-0-0-------------|
B-5-3-----0-------|
G-----2b4---2-0---|
D---------------2-|
A-----------------|
E-----------------|

VERSE
just play around with strumming and areggios of these chords
e-0---0---0---0-|
B-0---0---0---0-|
G-0---2---0---0-|
D-2---1---2---2-|
A-2---2---2---2-|
E-0-------0---0-|
fills:
e-12-12--------15-12-|-12----------------|
B--------12-15-------|---12-12-----------|
G--------------------|--------12-12---12-|
D--------------------|-------------14----|
A--------------------|-------------------|
E--------------------|-------------------|

CHORUS
strum each chord once
e-0---0---0---0---0---0---0-|
B-1---0---0---0---0---0---0-|
G-2---0---2---0---0---2---0-|
D-2---2---1---2---2---1---2-|
A-0---2---2---2---2---2---2-|
E-----0-------0---0-------0-|
lead fill:
e--------|
B--78108-|
G-9------|
D--------|
A--------|
E--------|
fill 2:
e-/12-----------|
B-----12----12/-|
G--------14-----|
D---------------|
A---------------|
E---------------|

SOLO                   this bit has really weird fingering,
                       any improvements would be appreciated
e-----------------------------------------------|
B-----------------------------------------------|
G----------14b16p12-----8-89-11-11p9-12b13r12-9-|
D-9b10r9-7----------14~--9--9--9----------------|
A-----------------------------------------------|
E-----------------------------------------------|

e---0---0---0--------------------------------------------|
B-5---5---3----------------------------------------------|
G-------------2-0-2b3r2p0-2-0-2b3r2p0-2-0----------------|
D-----------------------------------------2-0------------|
A--------------------------------------------2b3-0-------|
E-------------------------------------------------3b4-30-|

VERSE
just fills
e-151412-1412------------------|
B------------12-15-12-15-15b17-|
G------------------------------|
D------------------------------|
A------------------------------|
E------------------------------|

e-----------|
B-----------|
G-----------|
D-9---7-----|
A--10--9-10-|
E-----------|

CHORUS
strum each chord once
e-0---0---0---0---0---0---0-|
B-1---0---0---0---0---0---0-|
G-2---0---2---0---0---2---0-|
D-2---2---1---2---2---1---2-|
A-0---2---2---2---2---2---2-|
E-----0-------0---0-------0-|
lead bits:
e------|-12/----------|---------------|
B--78--|----12/---12/-|-8-7---7-8-7---|
G-9--9-|-------14/----|-----9-------9-|
D------|--------------|---------------|
A------|--------------|---------------|
E------|--------------|---------------|

SOLO 2

e-----0-----0-------------------------------------------------------|
B-------------0-3-0-3-0-3-0-3b5-5r3p0-3b5-5r3p0-3b5-5r3p0----3------|
G-2b4---2b4-----------------------------------------------2b4-4r2p0-|
D-------------------------------------------------------------------|
A-------------------------------------------------------------------|
E-------------------------------------------------------------------|
use a kill switch or the tone control trick for this bit. if you have neither, just mute 
note after you play it.
e-----------------------------------------------|
B-------------------------------------------3b5~|
G---0-2-0-4-0-4-0-2b3-2b3-2b3-2-2-0-------------|
D-2---------------------------------2-----------|
A-------------------------------------0---------|
E---------------------------------------3-------|

CHORUS
rhythm
strum each chord once
e-0---0---0---0---0---0---0-|
B-1---0---0---0---0---0---0-|
G-2---0---2---0---0---2---0-|
D-2---2---1---2---2---1---2-|
A-0---2---2---2---2---2---2-|
E-----0-------0---0-------0-|

e-0---0---0---0-|
B-0---0---0---0-|
G-0---2---0---0-|
D-2---1---2---2-|
A-2---2---2---2-|
E-0-------0---0-|

fill:
e-0-3-0---------------------|
B-------0-3-0-3-------------|
G---------------4-2-0-------|
D---------------------2p0-2-|
A---------------------------|
E---------------------------|
hit this and the end of the irst time around the chords
e-------|
B-12b13-|
G-12b13-|
D-------|
A-------|
E-------|
fill 2:
e-----------|
B-8-7---7---|
G-----9---9-|
D-----------|
A-----------|
E-----------|
end on
e-12~~~---|
B---------|
G---------|
D---------|
A---------|
E-------0-|
            

comments powered by Disqus
↑ Back to top | Jace Everett Tabs for Bad Things. Lyrics for acoustic guitar and electric guitar. Tablatures and chords are parodies/interpretations of the original songs. You may use it for private study, scholarship, research or language learning purposes only