>
 >
Spazed

Spazed Guitar Tabs

Izzy Stradlin - Spazed chords, tabs, tablatures, lyrics

Guitar lessons | Add/correct | Request | Top 50 tabs Artists:  A B C D E F G H I J K L M N O P Q R S T U V W X Y Z 0-9

Spazed Guitar Tabs – Izzy Stradlin

CD, Sheet music, Poster

Do you like Spazed? Share with your friends now
Tabs

Spazed 
(Izzy Stradlin)


intro
e--------------------------------------0---0--
B--------------------------------------0---3--
G--------------------------------------0---2--
D--4-4-4-4-5-5-5-5-6-6-6-6-7-----------2---0--
A--2-2-2-4-3-3-3-3-4-4-4-4-5-----------2------
E-----------------------------3-2-1-0--0------



A----------
E---3-2-1-0

VERSE 1

Em          G    D
Spazed in a time zone 
   Em
of light and darkness 
C         D
here I've known
A            C      D      Em      D    C
 I feel quite happy in this place 


A----------
E---3-2-1-0

Em        G    D  
float into sky tones 
   Em
of blue and white 
    C    D
and ends unknown 
A            C      D      Em
 I feel quite happy in this place 

------3
------3
------0
------0
------2
-0-2--3



RIFF 1
e-----------------------------
B-----------------------------
G-----------------------------
D--4-4-4-4-5-5-5-5-6-6-6-6-7-7/9
A--2-2-2-4-3-3-3-3-4-4-4-4-5-5/7
E-----------------------------

USE RIFF 1 TO PLAY THIS PART

I hear someboday callin' 
off in the distance yellin' 
Spazed, Spazed, Spazed, Spazed 


VERSE 2 

Em          G     D
hitchhike to starplanes
   Em                 C       D 
of gas and lights and colored rings
A             C         D 
 just floating out there 
        Em     D    C
in the maze 

A----------
E---3-2-1-0


Em       G    D
no goin' home zone
    Em               C          D 
no twisted signs of lives we've known
A          C        D       Em
 I see the colored earth below 

------3
------3
------0
------0
------2
-0-2--3


RIFF 2

e----------------------------------
B----------------------------------
G----------------------------------
D--9-9-9-9-7-7-7-7-5-5-5-5-4-4/9---
A--7-7-7-7-5-5-5-5-3-3-3-3-2-2/7---
E----------------------------------

USE RIFF 2 TO PLAY THIS PART

I hear someboday callin' 
off in the distance yellin' 
I hear someboday callin' 
off in the distance yellin' 
Spazed, Spazed, Spazed, Spazed 
Spazed, Spazed, Spazed, Spazed 

---------------------------------------------------------
"The chords used in the solo are the same as the verses"- 
(I'm working in the solo)                               -
---------------------------------------------------------

"END WITH THE SAME CHORDS USED IN THE VERSES"

Spazed in a time zone 
of light and dark and color codes 
I feel quite happy in this place





Comments


Popular Izzy Stradlin tabs & chords
California Chords
Hometown Chords
Needles Chords
Up Jumped The Devil Chords
Feelin Alright Ukulele
Pressure Drop Ukulele
Shuffle It All Ukulele
Somebody Knockin Ukulele
Take A Look At The Guy Ukulele
Up Jumped The Devil Ukulele


Song lyrics



↑ Back to top | Tablatures and chords are parodies/interpretations of the original songs. You may use it for private study, scholarship, research or language learning purposes only
© 2014 AZChords.com Contact us | Privacy policy | DMCA | Add/correct tabs | Request tabs | Top 50 tabs