» » »

Hammerhead Tabs (ver.1)

Artists:  A B C D E F G H I J K L M N O P Q R S T U V W X Y Z # 

Hammerhead Tabs (ver.1)

Izzy Stradlin
Rating:
5/5 (1 vote)

Tabs too difficult? Try these video lessons and learn fast.
                
p= Pull-off
b= Bend
r= Release
h= Hammer-On


Intro:

e-------------------------------------------------------------------------------------|
B-----------------------12--12--12-12-12-12-10-----12----10-12----10b--12-10-12h15p12-|
G-----------------------11--11--11-11-11-11-9b--11----11-------11---------------------|
D-------------------------------------------------------------------------------------|
A2--4--5--7--9--7--5--4---------------------------------------------------------------|
E-------------------------------------------------------------------------------------|

e------------------------------------------------------------------------------------|
B10-12-10-10b--10b-10-7---7----------------------------------------------------------|
G-----------------------9---9brp7-9-7---9-7----4-6-7-9-9b-9r-7-6-4-------------------|
D-------------------------------------9----------------------------------------------|
A------------------------------------------------------------------------------------|
E------------------------------------------------------------------------------------|


Verse:

B                           D     E
hammer hammer hammer hammer hammerhead!

B                           D     A

B                           D     E
hammer hammer hammer hammer hammerhead!

B                           D     A

A           D
5000 Miles
A           D
5000 miles
A           A
5000 miles

e-------------------------------------------------------------------------------------|
B------------------------10----9----12-10---------------------------------------------|
G------------------------13b---11b--------11-9b9rp7-9p7-9p7---9-7---------------------|
D-----------------------------------------------------------9-----9p7-----7h9--7------|
A2--4--5--7--9--7--5--4-----------------------------------------------9p7---------9p7-|
E-------------------------------------------------------------------------------------|


e------------------------------------------------------------------------------------|
B------------------------------------------------------------------------------------|
G-------7-----4-6-7-9-9b-9r-7-6-4----------------------------------------------------|
D---------9--------------------------------------------------------------------------|
A---7-9------------------------------------------------------------------------------|
E10----------------------------------------------------------------------------------|


Verse:

B                           D     E
hammer hammer hammer hammer hammerhead!

B                           D     A

B                           D     E
hammer hammer hammer hammer hammerhead!

B                           D     A

A           D
5000 Miles
A           D
5000 miles
A           A
5000 miles


e-----------------------|
B-----------------------|
G-----------------------|
D-----------------------|
A2--4--5--7--9--7--5--4-|
E-----------------------|

Bridge:

4x

B
Here we go!(drive)

A
Here we go!(drive)

G
Here we go!(drive)

Fis     A


e---------------------------------------------------------------|
B---------------------------------------------------------------|
G---------------------------------------------------------------|
D9-9-9-9-9-9-9-9-14p12p9-12-9-12-14-12-14-14b-14r-p12-14b-14-12-|
A---------------------------------------------------------------|
E---------------------------------------------------------------|

e--------------------------------------------------------------|
B-------------------------15----17b-17-15----17b17rp15------15-|
G--------------16-14b-14b----14-----------14----------16-16----|
D----12-14-14b-------------------------------------------------|
A-14-----------------------------------------------------------|
E--------------------------------------------------------------|

Licks during verse:

e--------------------------------|
B12------12--12--------------7---|
G11-9-11-11--11-11-9-9b9rp7--7---|
D--------------------------9---9-|
A--------------------------------|
E--------------------------------|


e----------------------------------|
B----------------------------------|
G----------------------------------|
D7h9--9-9-9-9----------------------|
A-------------7b-7r-p5-7p5--7-5----|
E-------------------------7------7-|


A           D
5000 Miles
A           D
5000 miles
A           A
5000 miles


e-----------------------|
B-----------------------|
G-----------------------|
D-----------------------|
A2--4--5--7--9--7--5--4-|
E-----------------------|

Bridge:

4x

B
Here we go!(drive)

A
Here we go!(drive)

G
Here we go!(drive)

Fis     A

e7-9-10-12-12b-12-10-9-7-9-10-12-12b-12-10-9-7-9-10-12-12b-12-10-9-7-|
B--------------------------------------------------------------------|
G--------------------------------------------------------------------|
D--------------------------------------------------------------------|
A--------------------------------------------------------------------|
E--------------------------------------------------------------------|
            
Tabs too difficult? Try these video lessons and learn fast.




comments powered by Disqus
↑ Back to top | Tablatures and chords are parodies/interpretations of the original songs. You may use it for private study, scholarship, research or language learning purposes only