» » »

Izzy Stradlin, Gotta Say Bass tabs (ver.1)

Artists:  A B C D E F G H I J K L M N O P Q R S T U V W X Y Z # 

Gotta Say Bass tabs (ver.1)

Izzy Stradlin Tabs
 Rating:
4/5 (4 votes)
Gotta Say lessons Tabs too difficult? Try these video lessons and learn fast
                Izzy Stradlin
117 Degrees
PLayed by Duff Mckagan
Standard Tuning

Intro
|--------|--------|--------|---------|
|--------|--------|--------|---------|
|--------|--------|--------|---------|
|--------|--------|--------|------3h0|
       

|--------|--------|--------|--------||
|--------|--------|--------|--------||
|-------0|3-33-330|-------0|3-33-330||
|3-33-33-|--------|3-33-33-|--------||

Verse
|--------|--------|--------|--------|
|--------|--------|--------|--------|
|-------0|3-33-330|-------0|3-33-330|
|3-33-33-|--------|3-33-33-|--------|

|--------|--------|--------|--------|
|--------|--------|--------|--------|
|--------|--------|0-00-003|5555-555|
|3-33-32-|0-00-000|--------|--------|

|--------|--------|--------|--------|
|--------|--------|--------|--------|
|-------0|3-33-330|-------0|3-33-330|
|3-33-33-|--------|3-33-33-|--------|

|--------|--------|--------|--------|--------||
|--------|--------|--------|--------|--------||
|--------|--------|0-00-003|5-55-555|5-55-555||
|3-33-32-|0-00-000|--------|--------|--------||

Chorus
|--------|--------|--------|--------|
|--------|--------|--------|--------|
|3-x3-333|5-x5-555|--------|--------|
|--------|--------|3-x3-333|0-00-000|

|--------|--------|--------|--------|
|--------|--------|--------|--------|
|3-x3-333|5-x5-555|----5-xx|----5-xx|
|--------|--------|3-xx----|0-xx----|

|--------|--------|--------|--------|
|--------|--------|--------|--------|
|3-x3-333|5-x5-555|--------|--------|
|--------|--------|3-x3-333|0-00-000|

|--------|--------||
|--------|--------||
|3-x3-333|5-555555||
|--------|--------||

Pre-Verse
|--------|--------|--------|--------||
|--------|--------|--------|--------||
|-------0|3-33-330|-------0|3-33-330||
|3-33-33-|--------|3-33-33-|--------||

Verse
|--------|--------|--------|--------|
|--------|--------|--------|--------|
|-------0|3-33-330|-------0|3-33-330|
|3-33-33-|--------|3-33-33-|--------|

|--------|--------|--------|--------|
|--------|--------|--------|--------|
|--------|--------|0-00-003|5555-555|
|3-33-32-|0-00-000|--------|--------|

|--------|--------|--------|--------|
|--------|--------|--------|--------|
|-------0|3-33-330|-------0|3-33-330|
|3-33-33-|--------|3-33-33-|--------|

|--------|--------|--------|--------|--------||
|--------|--------|--------|--------|--------||
|--------|--------|0-00-003|5-55-555|5-55-555||
|3-33-32-|0-00-000|--------|--------|--------||

Chorus
|--------|--------|--------|--------|
|--------|--------|--------|--------|
|3-x3-333|5-x5-555|--------|--------|
|--------|--------|3-x3-333|0-00-000|

|--------|--------|--------|--------|
|--------|--------|--------|--------|
|3-x3-333|5-x5-555|----5-xx|----5-xx|
|--------|--------|3-xx----|0-xx----|

|--------|--------|--------|--------|
|--------|--------|--------|--------|
|3-x3-333|5-x5-555|--------|--------|
|--------|--------|3-x3-333|0-00-000|

|--------|--------|--------|--------||
|--------|--------|--------|--------||
|3-x3-333|5-x5-555|----5-xx|----5-55||
|--------|--------|3-xx----|0-xx----||

Guitar Solo
|--------|--------|--------|--------|
|--------|--------|--------|--------|
|3-x3-333|5-x5-555|--------|--------|
|--------|--------|3-x3-333|0-00-000|

|--------|--------|--------|--------|
|--------|--------|--------|--------|
|3-x3-333|5-x5-555|----5-xx|----5-xx|
|--------|--------|3-xx----|0-xx----|

|--------|--------|--------|--------|
|--------|--------|--------|--------|
|3-x3-333|5-x5-555|--------|--------|
|--------|--------|3-x3-333|0-00-000|

|--------|--------||
|--------|--------||
|3-x3-333|5-555555||
|--------|--------||

Outro
|--------|--------|--------|--------|
|--------|--------|--------|--------|
|-------0|3-33-330|-------0|3-33-330|
|3-33-33-|--------|3-33-33-|--------|

|--------|--------|--------|--------||
|--------|--------|--------|--------||
|-------0|3-33-330|-------0|3-x3~~~~||
|3-33-33-|--------|3-33-33-|--------||

Key
h - Hammer on
x - Muted note
~ - Vibrato
            
Submit corrections

comments powered by Disqus
↑ Back to top | Izzy Stradlin Bass for Gotta Say. Lyrics for acoustic guitar and electric guitar. Tablatures and chords are parodies/interpretations of the original songs. You may use it for private study, scholarship, research or language learning purposes only