» » »

Drove Tabs (ver.1)

Artists:  A B C D E F G H I J K L M N O P Q R S T U V W X Y Z # 

Drove Tabs (ver.1)

Izzy Stradlin
Rating:
0/5 (0 votes)

Hard to play? Try these video lessons and learn fast.
                This is my first upload to this site, it's a great song from the album "Concrete" by
Stradlin called "Drove" ... I think it sounds good, any questions they leave my 

e|-------------------------------------------------------------|
B|-------------------------------------------------------------|
G|-5---7----8-----10---8--7--7--5-------------|*1--------------|
D|-5---7----8-----10---8--7--7--5----555-8---------------------|
A|-3---5----6-----8----6--5--5--3----555-8---------------------|
E|-----------------------------------333-6---------------------|
  Drove all night into the sunrise              ------->Part 1-|
e|-------------------------------------------------------------|
B|-------------------------------------------------------------|
G|-5----7---8-----10---8--7-7\5---------------|*2--------------|
D|-5----7---8-----10---8--7-7\5------555-8---------------------|
A|-3----5---6-----8----6--5-5\3------555-8---------------------|
E|-----------------------------------333-6---------------------|
  Drove all night into the dawn

Drove all night into the morning *1
Drove all night into the dawn *2

   G#   A# B          F#
e|------------------|----|
B|------------------|----|
G|------------------|----| -----> Part 2
D|-6666-8-10--------|-4--|
A|-6666-8-10--------|-4--|
E|-4444-6-8---------|-2--|

G# A# B                       G# A# B
       Went all the way there,       Went all the way there
G# A# B
       Went all the way there
A#                       G#
Heading you give in the, got thru the canyons and
A#                G#               F# <--I'm not sure
Engine's roaring, firing the night


(Part 1)
La la la, la la
La la la, la la
Drove all night into the morning
Drove all night into the dawn

(Part 2)
Went all the way there, went all the way there
Went all the way there
This still in burning, high octane journey and
Gearbox crying, thru the night

(Part 2)
Went all the way there, went all the way there
Went all the way there
The sunrise's coming up, just pass the ocean
Dust that's poring out, from the way


Hope you like the song, any doubts contact me ...
Izzy Rocks!!!...
            
Hard to play? Try these video lessons and learn fast. | Correct




comments powered by Disqus
↑ Back to top | Tablatures and chords are parodies/interpretations of the original songs. You may use it for private study, scholarship, research or language learning purposes only