» » »

Izia, The Light Tabs (ver.1)

Artists:  A B C D E F G H I J K L M N O P Q R S T U V W X Y Z # 

The Light Tabs (ver.1)

Izia Tabs
 Rating:
4/5 (4 votes)
The Light lessons Tabs too difficult? Try these video lessons and learn fast
1
                
Intro (x2):

   E                               Bm                              G
-|----------------------------------------------------------------------------------|
-|----------------------------------------------------------------------------------|
-|----------------------------------------------------------------------------------|
-|-9-9-x-9-9-9-x-9-9-9-x-9-9-9-x-9-9-9-x-9-9-9-x-9-9-9-x-9-9-9-x-9-9--9--x--9--9--9-|
-|-7-7-x-7-7-7-x-7-7-7-x-7-7-7-x-7-9-9-x-9-9-9-x-9-9-9-x-9-9-9-x-9-10-10-x-10-10-10-|
-|----------------------------------------------------------------------------------|

                              C                    F7#9
-|---------------------------------------------------------------------------------|
-|---------------------------------------------------------------------------------|
-|-------------------------------------------------(9)-(9)--(9)-(9)-(9)---(9)------|
-|-x--9--9--9-x--9--9--9-x--9-10-10-x-10-10-10-x-10-8---8--x-8---8---8---x-8--9-9--|
-|-x-10-10-10-x-10-10-10-x-10-10-10-x-10-10-10-x-10-9---9--x-9---9---9---x-9--7-7--|
-|---------------------------------------------------------------------------------|


Verse (same ryhtmic as Intro):
    E      Bm     G           C     F7#9
-|--------------------------------------------------|--|
-|--------------------------------------------------|--|
-|-(9)----(9)----(9)--------------------------------|--|
-|-(9)----(9)-----9--or-------5------8--or--2-------|--|
-|--7------9------10----2-----3------9------1-------|--|
-|---------10-----------3-------------------2-------|--|

Chorus 1

     G (rake)         C          B \  C           Bm            Am
-|---3-(3)--3-3-------8----------7-\--8--8--8-|---7-7---7-------5-5---5-----------|
-|---0-(0)--1-0-------8----------7-\--8--8--8-|---7-7---7-------5-5---5-----------|
-|---0-(0)--0-0-------9----------8-\--9--9--9-|---7-7---7-(x2)--5-5---5-(x2)------|
-|---0-(0)-----------10----------9-\-10-10-10-|-----------------------------------|
-|---2-(2)-----------10----------9-\-10-10-10-|-----------------------------------|
-|---3-(3)------------8-(x5)-----7-\--8--8--8-|-----------------------------------|

                                          (wha-wha half open)
-|---------------------------------------|------------------------------------|
-|---------------------------------------|------------------------------------|
-|---------------------------------------|------------------------------------|
-|---------------------------------------|------------------------------------|
-|---------------------------------------|------------------------------------|
-|-2---2-2--2---2-2---1---1-1--1-0-1-2-2-|-12-12-12-12-0-0-0-(x2)-------------|

-|-----------------------------------------------------------------------------|
-|-----------------------------------------------------------------------------|
-|-----------------------------------------------------------------------------|
-|-----------------------------------------------------------------------------|
-|-----------------------------------------------------------------------------|
-|-14-14-14-14-0-0-0 (x2)-15-15-15-15-0-0-0-(x2)-8-8-8-8-0-0-0-7-7-7-6-7-6-7---|


Chorus 2 idem as chorus 1, but after the four F# (14th fret), the E is played only 
twice and thus the
G (15th fret)  starts just before the beat and is played five times :

-|---------------------------------------------------------------------------------|
-|---------------------------------------------------------------------------------|
-|---------------------------------------------------------------------------------|
-|---------------------------------------------------------------------------------|
-|---------------------------------------------------------------------------------|
-|--14-14-14-14-0-0-0-14-14-14-14-0-0-15-15-15-15-15-0-0-0-15-15-15-15-0-0-0--etc--|


...followed by a very nice Take-the-veil-from-Mars-Volta-like break  :

     C     Cdim    D#dim     A# B
-|-----------------------------------|
-|-----------------------------------|
-|-----------------------------------|
-|-x-5----x-4-----x-7------X-8--9----|
-|-x-3----x-3-----x-6------X-8--9----|
-|-------------------------X-6--7----|

...then outro

-|------------------------------------------------------------------|--|
-|------------------------------------------------------------------|--|
-|------------------------------------------------------------------|--|
-|------------------------------------------------------------------|--|
-|-7-7-7-7-------7-7-7-9b11r9h7---9-9-9-9-------9-9-9-9b10r9h7------|--|
-|---------0-0-0----------------0---------0-0-0----------------0----|--|

                                           =>keep picking with progressive bend
-|-----------------------------------------|-------------------------|--|
-|-----------------------------------------|-------------------------|--|
-|-----------------------------------------|-------------------------|--|
-|-----------------------------------------|-------------------------|--|
-|-10-10-10-10-------10-10-10-10b12r10-10--|-12-12b13-12b14----------|--|
-|-------------0-0-0----------------------0|-------------------------|--|

                                C    Cdim    D#dim    A#   B
-|--------------------------|------------------------------------|
-|--------------------------|------------------------------------|
-|--------------------------|------------------------------------|
-|--------------------------|-x-5----x-4-----x-7------8----9-----|
-|---7-9-7-10-7-9-7---------|-x-3----x-3-----x-6------8----9-----|
-|-0----------------0-(x6)--|-------------------------6----7-----|

end.
            
Submit corrections

comments powered by Disqus
↑ Back to top | Izia Tabs for The Light. Lyrics for acoustic guitar and electric guitar. 1 Tablatures and chords are parodies/interpretations of the original songs. You may use it for private study, scholarship, research or language learning purposes only