» » »

Izia, Lola Bass tabs (ver.1)

Artists:  A B C D E F G H I J K L M N O P Q R S T U V W X Y Z # 

Lola Bass tabs (ver.1)

Izia Tabs
Rating:
0/5 (0 votes)
Lola lessons Tabs too difficult? Try these video lessons and learn fast
                Artiste: Izia
Titre: Lola
Tableur:4ary4
Acordage standard EADG

Intro (sans basse)

Entrée basse : (0:37)

G[----------------|----------------|----------------|----------------|]
D[----------------|----------------|----------------|----------------|] *2
A[----------------|----------------|5-5-------------|----8-------6---|]
E[5-5------------5|1-1------------1|----------------|6-6---6-4-4---4-|]

 intro refrain, sans basse (0:49)

Puis Entrée Basse (refrain) : (0:51)

G[----------------|----------------|----------------|----------------|]
D[----------------|----------------|----------------|3-3---X3.--53-53|]
A[5-5---X5.---5-5-|8-8---X8.---8-8-|5-5---X5.---5-5-|----------------|]
E[----------------|----------------|----------------|----------------|]


Couplet (1:34)

Refrain (1:50)

Interlude en fin de refrain: (2:01)

G[----------------|----------------|
D[----------------|----------------|
A[----------------|----------------|
E[---------------/|5---------------|



G[----------------|----------------|7-7-----7---7---|7-7-----7---7---|]
D[7-7-----7-7-----|3-3-----3-3-----|----------------|----------------|] *2
A[----------------|----------------|----------------|----------------|]
E[----5-5-----5-5-|---1-1------1-1-|----5-5---5---5-|----5-5---5---5-|]

2:26
        8*case 12     8*case10       8*case11         5*case14 et 3* 16
G[----------------|1010101010101010|1111111111111111|1414141414161616|]
D[1212121212121212|----------------|----------------|----------------|] *4
A[----------------|----------------|----------------|----------------|]
E[----------------|----------------|----------------|----------------|]

fin:

G[----------------|----------------|]
D[----------------|--------7---7---|]   *4
A[5-5-5-5-5-5-5-5-|8-8-8-8---8---8-|]
E[----------------|----------------|] 

G[----------------|----------------|]
D[----------------|----------------|]   *4
A[----------------|----------------|]
E[5.--------------|----------------|]


X = Note morte (ou corde étouffée)

/ = Slide Up
\ = Slide Down
. = note pointée (ou maintenue)

Fais toi plaisir.
            

comments powered by Disqus
↑ Back to top | Izia Bass for Lola. Lyrics for acoustic guitar and electric guitar. Tablatures and chords are parodies/interpretations of the original songs. You may use it for private study, scholarship, research or language learning purposes only