» » »

Let Me Alone Bass tabs (ver.1)

Artists:  A B C D E F G H I J K L M N O P Q R S T U V W X Y Z # 

Let Me Alone Bass tabs (ver.1)

Izia
Rating:
5/5 (1 vote)

Hard to play? Try these video lessons and learn fast.
                Artiste: Izia
Titre: Back In Town
Tableur:4ary4
Acordage standard EADG

Intro sans basse

Entrée basse 0:48

G[----------------|----------------|]
D[----------------|----------------|]
A[----------------|4-4----47---7---|]
E[5-5--X5-5-5----5|----------------|]

1:17

G[----------------|----------------|]
D[----------------|----------------|]
A[----------------|----------------|]   *2
E[2-2--X2-2-2----2|5-5--X5-5-5----5|]

1:20  idem première partie en plus péchu

1:47:
                                    1:59 :
G[----------------|----------------|----------------|----------------|]
D[------------4422|------------4424|----------------|5-5-5-5-5-5-5-5-|]
A[----------------|2-2-2-2-2-2-----|2-2-2-2-2-2-2-2-|----------------|]
E[2-2-2-2-2-2-----|----------------|----------------|----------------|]

Deuxième partie: 2:04

G[--------------|--------------|--------------|--------------|]
D[--------------|--------------|--------------|--------------|]
A[--------------|--------------|5-5-X5.-5-5-5-|5-5-X5.-5-5-5-|]
E[5-5-X5.-5-5-5-|7-7-X7.-7-7-7-|--------------|--------------|]

2:28

G[----------------|----------------|----------------|----------------|
D[----------------|----------------|----------------|----------------|
A[----------------|----------------|----------------|----------------|
E[5---------------|5---------------|5-------------1-|----3---3---3---|

G[----------------|
D[----------------|
A[----------------|
E[5---------------|

2:37

G[----------------|
D[7-7-7--67-7-7---|  *beaucoup de fois
A[----------------|
E[----------------|

G[----------------|
D[7-7-7---7-5-4---|  à la fin de cette partie (2:53)
A[--------------7-|
E[----------------|

Puis reprend le thème initial de la deuxième partie (voir 2:04) et termine dessus.
            
Hard to play? Try these video lessons and learn fast. | Correct




comments powered by Disqus
↑ Back to top | Tablatures and chords are parodies/interpretations of the original songs. You may use it for private study, scholarship, research or language learning purposes only