» » »

Hey Bitch Bass tabs (ver.1)

Artists:  A B C D E F G H I J K L M N O P Q R S T U V W X Y Z # 

Hey Bitch Bass tabs (ver.1)

Izia
Rating:
0/5 (0 votes)

Hard to play? Try these video lessons and learn fast.
                Artiste: Izia
Titre: b**ch
Tableur:4ary4
Acordage standard EADG

Toute la musique est construites sur quatre accords, deux pendants les couplets:

G[----------------|----------------|]
D[----------------|----------------|] 
A[----------------|9-9-9-99-9-9----|]
E[9-9-9-99-9-9----|----------------|]

et quatre pour les refrains:

G[----------------|----------------|----------------|----------------|]
D[----------------|----------------|----------------|----------------|]
A[----------------|9-9-9-99-9-9----|7-7-7-77-7-7----|----------------|]
E[9-9-9-99-9-9----|----------------|----------------|7-7-7-77-7-7----|]

quelques variations:

G[----------------|-------11-9---9-|----------------|--------891198--|]
D[----------------|-----------11---|------9-7-6---9-|--------------9-|]
A[-------11-9-7-97|9---------------|7-----------7--7|----------------|]
E[9---------------|----------------|----------------|7---------------|]
            
Hard to play? Try these video lessons and learn fast. | Correct




comments powered by Disqus
↑ Back to top | Tablatures and chords are parodies/interpretations of the original songs. You may use it for private study, scholarship, research or language learning purposes only