» » »

Iwan Fals, Ibu Tabs (ver.1)

Artists:  A B C D E F G H I J K L M N O P Q R S T U V W X Y Z # 

Ibu Tabs (ver.1)

Iwan Fals Tabs
Rating:
5/5 (3 votes)
Ibu lessons Tabs too difficult? Try these video lessons and learn fast
                Song        : Ibu
Artist      : Iwan Fals


e|---------0-------------------------0----------0----|
B|-------0---0------0-------0------0---0------0---0--|
G|-----0----------0-------0------0----------0--------|
D|--/4----------5-------4------2----------2----------|
A|---------------------------------------------------|
E|---------------------------------------------------|

e|---------0-------------------------0------------------|
B|-------0---0------0-------0------0---0------0------0--|
G|-----0----------0-------0------0----------0------0----|
D|--/4----------5-------4------2----------2------0------|
A|------------------------------------------------------|
E|------------------------------------------------------|

e|------------------------------------0--|
B|--------0-----------------------0------|
G|------0---0------0-----0------0---0----|
D|----2----------2-----2------2----------|
A|--3----------3-----2------0------------|
E|---------------------------------------|

e|---------0-------------------------0----------0----|
B|-------0---0------0-------0------0---0------0---0--|
G|-----0----------0-------0------0----------0--------|
D|--/4----------5-------4------2----------2----------|
A|---------------------------------------------------|
E|---------------------------------------------------|



e|--------0----------0----------0----------0-----|
B|------0---0------0---0------0---0------0---0---|
G|----0----------0----------0----------0---------|
D|-----------------------------------------------|
A|------------------------3----------------------|
E|--0----------0---------------------0-----------|

e|--------0--------------------------------0-----|
B|------0---0--------0----------0--------0---0---|
G|----0------------0---0------0---0----0---------|
D|---------------2----------2--------------------|
A|--3----------0----------2----------------------|
E|-----------------------------------0-----------|

e|--------0----------0----------0----------0-----|
B|------0---0------0---0------0---0------0---0---|
G|----0----------0----------0----------0---------|
D|-----------------------------------------------|
A|------------------------3----------------------|
E|--0----------0---------------------0-----------|

e|--------0------------------------------------------------------------|
B|------0---0--------0----------0----------0----------0----------0-----|
G|----0------------0---0------0---0------0---0------0---0------0---0---|
D|---------------2----------2----------2----------2----------2---------|
A|--3----------0----------2--------------------------------------------|
E|-----------------------------------0----------0----------0-----------|



e|---------------------------------------------------------|
B|------------------0----------0----------0----------0-----|
G|------0---------0---0------0---0------0---0------0---0---|
D|----2---------2----------2----------2----------2---------|
A|-----------------------0----------3----------------------|
E|--0-----0-2-3--------------------------------0-----------|

e|----------------------------0-----3-3-3-2---0---0--------|
B|--------0----------0-------0--------------3---0---0------|
G|------0---0------0---0----0-------------------------0----|
D|----2----------2---------2----------------------------2--|
A|-------------0----------3--------------------------------|
E|--3------------------------------------------------------|



e|---------0-------------------------0------------------|
B|-------0---0------0-------0------0---0------0------0--|
G|-----0----------0-------0------0----------0------0----|
D|--/4----------5-------4------2------------------------|
A|------------------------------------------------------|
E|----------------------------------------3------2------|



e|--------0----------0----------0----------0-----|
B|------0---0------0---0------0---0------0---0---|
G|----0----------0----------0----------0---------|
D|-----------------------------------------------|
A|------------------------3----------------------|
E|--0----------0---------------------0-----------|

e|--------0--------------------------------------|
B|------0---0--------0----------0----------0-----|
G|----0------------0---0------0---0------0---0---|
D|---------------2----------2----------2---------|
A|--3----------0----------2----------------------|
E|-----------------------------------0-----------|



e|---------------------------------------------------------|
B|------------------0----------0----------0----------0-----|
G|------0---------0---0------0---0------0---0------0---0---|
D|----2---------2----------2----------2----------2---------|
A|-----------------------0----------3----------------------|
E|--0-----0-2-3--------------------------------0-----------|

e|----------------------------0--|
B|--------0----------0-------0---|
G|------0---0------0---0----0----|
D|----2----------2---------2-----|
A|-------------0----------3------|
E|--3----------------------------|



e|--------0-----------0-------------------------0----------0----|
B|------0---0-------0---0------0-------0------0---0------0---0--|
G|----0-----------0----------0-------0------0----------0--------|
D|-------------/4----------5-------4------2----------2----------|
A|--------------------------------------------------------------|
E|--0-----------------------------------------------------------|

e|---------0-------------------------0------------------|
B|-------0---0------0-------0------0---0------0------0--|
G|-----0----------0-------0------0----------0------0----|
D|--/4----------5-------4------2----------2------0------|
A|------------------------------------------------------|
E|------------------------------------------------------|

e|------------------------------------------------|
B|--------0-----------------------0----------0----|
G|------0---0------0-----0------0---0------0---0--|
D|----2----------2-----2------2----------2--------|
A|--3----------3-----2------0----------0----------|
E|------------------------------------------------|

e|---------0-------------------------0------------------|
B|-------0---0------0-------0------0---0------0------0--|
G|-----0----------0-------0------0----------0------0----|
D|--/4----------5-------4------2------------------------|
A|------------------------------------------------------|
E|----------------------------------------3------2------|



e|--------0----------0----------0----------0-----|
B|------0---0------0---0------0---0------0---0---|
G|----0----------0----------0----------0---------|
D|-----------------------------------------------|
A|------------------------3----------------------|
E|--0----------0---------------------0-----------|

e|--------0--------------------------------------|
B|------0---0--------0----------0----------0-----|
G|----0------------0---0------0---0------0---0---|
D|---------------2----------2----------2---------|
A|--3----------0----------2----------------------|
E|-----------------------------------0-----------|

e|--------0----------0----------0----------0-----|
B|------0---0------0---0------0---0------0---0---|
G|----0----------0----------0----------0---------|
D|-----------------------------------------------|
A|------------------------3----------------------|
E|--0----------0---------------------0-----------|

e|--------0--------------------------|
B|------0---0--------0----------0----|
G|----0------------0---0------0---0--|
D|---------------2----------2--------|
A|--3----------0----------2----------|
E|-----------------------------------|

e|---------------------------------------------------------|
B|------------------0----------0----------0----------0-----|
G|------0---------0---0------0---0------0---0------0---0---|
D|----2---------2----------2----------2----------2---------|
A|-----------------------0----------3----------------------|
E|--0-----0-2-3--------------------------------0-----------|

e|-------------------------------0--3-3-3-2---0---0--------|
B|--------0----------0----0-----0-----------3---0---0------|
G|------0---0------0---0--0----0----------------------0----|
D|----2----------2------------2-------------------------2--|
A|-------------0-------------3-----------------------------|
E|--3------------------------------------------------------|

e|--------------------2---|
B|-----------0-------0----|
G|--------0---------0-----|
D|-----2------------------|
A|------------------------|
E|--0---------------------|
            
Submit corrections

comments powered by Disqus
↑ Back to top | Iwan Fals Tabs for Ibu. Lyrics for acoustic guitar and electric guitar. Tablatures and chords are parodies/interpretations of the original songs. You may use it for private study, scholarship, research or language learning purposes only