» » »

Iwan Fals, Ambulance Zigzag Tabs (ver.1)

Artists:  A B C D E F G H I J K L M N O P Q R S T U V W X Y Z # 

Ambulance Zigzag Tabs (ver.1)

Iwan Fals Tabs
 Rating:
4.2/5 (5 votes)
Ambulance Zigzag lessons Tabs too difficult? Try these video lessons and learn fast
1
                Song Title   : Ambulance Zigzag
Artist       : Iwan Fals


Fig1
e|--3------------0------3---2---0---5-------0---------0---------0-----------------|
B|----0-1----3-----3--------------------3-----3---2-----2---0-----0----------0----|
G|--------2----0-----0----0---0---0---0---0-----0---0-----0---0-----0------0------|
D|-----------0----------5---4---2---7----------------------------------0h2--------|
A|--------------------------------------5---------4---------2---------------------|
E|--3--------------------------------------------------------------------------2--|

e|--------0-2h3p2---0-2-3---------3--|
B|--0-1-3---------3-------0-1---3-3--|
G|----------------------------2------|
D|----------0------------------------|
A|-----------------------------------|
E|--3-------------------3-------3----|

Fig2
e|--3------------0------3---2---0---5-------0---------0---------0-----------------|
B|----0-1----3-----3--------------------3-----3---2-----2---0-----0----------0----|
G|--------2----0-----0----0---0---0---0---0-----0---0-----0---0-----0------0------|
D|-----------0----------5---4---2---7----------------------------------0h2--------|
A|--------------------------------------5---------4---------2---------------------|
E|--3--------------------------------------------------------------------------2--|

e|------3---------2---------0---------0---------3---------2---------------0---------0-------|
B|----0---0---3-----3---0-----0---1-----1-----0---0---3-----3---------------0---1-----1-----|
G|--0-------0---2-----2---0-----0---0-----0-0-------0---2-----2---------0-----0---0-----0---|
D|------------0---------2-----------------------------0---------5--4--2---------------------|
A|--------------------------------3---------------------------------------------3-----------|
E|--3---------------------------------------3-------------------3--2--0---------------------|

e|------3------------------------------------------------|
B|----0---0---3--1-----------0-------0----------0--------|
G|--0-------0-------0------0-----0------------0-----0----|
D|------------0--------0h2-----0---2------0h2-----0---2--|
A|---------------3---------------------------------------|
E|--3---------------3------------------3-----------------|

Fig3
e|--3------------0------3---2---0---0-----5---5---------0---------0---------0-----------------|
B|----0-1----3-----3------------------0---------0---3-----3---2-----2---0-----0----------0----|
G|--------2----0-----0----0---0---0-----0---0-----0---0-----0---0-----0---0-----0------0------|
D|-----------0----------5---4---2---------7-----7----------------------------------0h2--------|
A|--------------------------------------------------5---------4---------2---------------------|
E|--3--------------------------------------------------------------------------------------2--|

e|------3---------2--------------------------|
B|----0---0---3-----3---1-0---------0--------|
G|--0-------0---2-----2-----0-----0-----0----|
D|------------0---------------0h2-----0---2--|
A|----------------------3--------------------|
E|--3---------------------2-3----------------|

Fig4
e|--3------------0------3---2---0---0-----5---5---------0---------0---------0-----------------|
B|----0-1----3-----3------------------0---------0---3-----3---2-----2---0-----0----------0----|
G|--------2----0-----0----0---0---0-----0---0-----0---0-----0---0-----0---0-----0------0------|
D|-----------0----------5---4---2---------7-----7----------------------------------0h2--------|
A|--------------------------------------------------5---------4---------2---------------------|
E|--3--------------------------------------------------------------------------------------2--|

e|------3---------2---------0---------0---------|
B|----0---0---3-----3---0-----0---1-----1-----0-|
G|--0-------0---2-----2---0-----0---0-----0-0---|
D|------------0---------2-----------------------|
A|--------------------------------3-------------|
E|--3---------------------------------------3---|

3----------------------------------------------------|
--0---3--1-----------0-------0----------0-------0----|
----0-------0------0-----0------------0-----0--------|
------0--------0h2-----0---2------0h2-----0---2------|
---------3-------------------------------------------|
------------3------------------3------------------3--|
Fig5
e|------0---------------------1----------------------0---------------------1------------------|
B|--------1---------------------0----------------------1---------------------0----------------|
G|----0-----0-----0-----0---0-----0-----0-----0----0-----0-----0-----0---0-----0-----0-----0--|
D|------------0h2---0h2-------------0h2---0h2--------------0h2---0h2-------------0h2---0h2----|
A|--3--------------------------------------------3--------------------------------------------|
E|------------------------3--------------------------------------------3----------------------|

e|------0---------------------1----------------------0----------------|
B|--------1---------------------0----------------------1--------------|
G|----0-----0-----0-----0---0-----0-----0-----0----0-----0-----0------|
D|------------0h2---0h2-------------0h2---0h2--------------0h2---0h2--|
A|--3--------------------------------------------3--------------------|
E|------------------------3-------------------------------------------|

e|------2---------2---------2---------2------|
B|--------3---------3---------3---------3----|
G|----2-----2---2-----2---2-----2---2-----2--|
D|--0---------0---------0---------0----------|
A|-------------------------------------------|
E|-------------------------------------------|

e|------------0----------------3-----------3--|
B|--------------0----3--1----0---0---0--1-----|
G|----------0-----0--------0-------0----------|
D|--5--4--2----------0---------------0--2-----|
A|----------------------3---------------------|
E|--3--2--0----------------3---------------3--|

Fig6
e|------------0---------0---------3---------2---------0---------2---------------3------|
B|--------------0---1-----1-----0---0---3-----3---1-----1---3-----3---1--0----0---0----|
G|----------0-----0---0-----0-0-------0---2-----2---0-----0---2-----2-------0-------0--|
D|--5--4--2-----------------------------0-------------------0--------------------------|
A|------------------3-----------------------------3-------------------3----------------|
E|--3--2--0-------------------3------------------------------------------2--3----------|

e|------0---------3---------0---------3---------2---------0----------------------------|
B|--1-----1-----0---0---1-----1-----0---0---3-----3---0-----0---1--3----------0--------|
G|----0-----0-0-------0---0-----0-0-------0---2-----2---0-----0-------0-----0-----0----|
D|------------------------------------------0---------2------------0----0h2-----0---2--|
A|--3-------------------3---------------------------------------3----------------------|
E|------------3-------------------3-----------------------------------3----------------|


CHORD

(intro)
Fig1
G D G F#m E Am C Bm Am
G D G

Fig2
G        D
Deru ambulance
      G  F#m   Em    Am    C
Memasuki pelataran rumah sakit
     Bm         Am
Yang putih berkilau
   G         D 
Di dalam ambulance tersebut
Em         C         G
Tergolek sosok tubuh gemuk
       D
Bergelimang perhiasan
G F#m Em
Nyonya kaya pingsan
C         G
Mendengar kabar
         D C    G
Putranya kecelakaan

Fig3
G          D
Dan para medis
       G    F#m   Em
Berdatangan kerja cepat
         Am           C             Bm         Am
Lalu langsung membawa korban menuju ruang periksa
      G
Tanpa basa basi
D             C         G
Ini mungkin sudah terbiasa

Fig4
G           D
Tak lama berselang
      G   F#m   Em
Supir helicak datang
      Am         C        Bm         Am
Masuk membawa korban yang berkain sarung
        G          D
Seluruh badannya melepuh
   Em            C         G     D C
Akibat pangkalan bensin ecerannya
    G
Meledak

Fig5
          C
Suster cantik datang
      G
Mau menanyakan
      C                G
Dia menanyakan data si korban
         C
Di jawab dengan
        G
Jerit kesakitan
         C                  D
Suster menyarankan bayar ongkos pengobatan
G F#m Em          C      D        G
Ai sungguh sayang korban tak bawa uang

Fig6
G F#m Em
Suster cantik ngotot
C        G
Lalu melotot
    D        C          D          C  D G
Dan berkata “Silahkan bapak tunggu di muka!”
    C      G
Hai modar aku
    C      G
Hai modar aku
D          Em       C   D    G
Jerit si pasien merasa kesakitan
            
Submit corrections

comments powered by Disqus
↑ Back to top | Iwan Fals Tabs for Ambulance Zigzag. Lyrics for acoustic guitar and electric guitar. 1 Tablatures and chords are parodies/interpretations of the original songs. You may use it for private study, scholarship, research or language learning purposes only