» » »

I Voted For Kodos, Where Are We Going To Tabs (ver.1)

Artists:  A B C D E F G H I J K L M N O P Q R S T U V W X Y Z # 

Where Are We Going To Tabs (ver.1)

I Voted For Kodos Tabs
 Rating:
4/5 (4 votes)
Where Are We Going To lessons Tabs too difficult? Try these video lessons and learn fast
                -------------------------------------------------------------------------------
                         Where Are We Going To- I Voted For Kodos
-------------------------------------------------------------------------------

Tuning:EADGBe    Intro- The main bit is done by the bass, there is also a guitar part
Starts at 0:05, play just once.

My first tab. Yay me!


e|--------------------------------------------------------------------------|
B|--------------------------------------------------------------------------|
G|-------7-7—--9-9---5-5—-5-5-----------------------------------------------|
D|-5-5--—7-7—--9-9---5-5-—5-5-----------------------------------------------|
A|-5-5--—5-5—--7-7---3-3--3-3-----------------------------------------------|
E|-3-3----------------------------------------------------------------------|


e|--X3X3X3X3—-X5X5X5X5—-X7X7X7X7--X3X3X3X3------|VERSE|----------------------|
B|--X3X3X3X3--X7X7X7X7—-X9X9X9X9—-X5X5X5X5-----------------------------------|
G|--X4X4X4X4—-X7X7X7X7--X9X9X9X9—-X5X5X5X5-----|Offbeat ska strumming|-------|
D|--X5X5X5X5—-X7X7X7X7—-X9X9X9X9—-X5X5X5X5-----------------------------------|
A|---------------------------------------------------------------------------|
E|---------------------------------------------------------------------------|



e|------|CHORUS |------------------------------------------------------------|
B|------------------7—-7-7-7-7-7-7—-9--9-9-9-9-9-9—-5—-5-5-5-5-5-5-----------|
G|------------------7—-7-7-7-7-7-7—-9--9-9-9-9-9-9—-5—-5-5-5-5-5-5-----------|
D|--5-—5-5-5-5-5-5—-5—-5-5-5-5-5-5—-7—-7-7-7-7-7-7—-3-—3-3-3-3-3-3-----------|
A|--5—-5-5-5-5-5-5-----------------------------------------------------------|
E|--3—-3-3-3-3-3-3-----------------------------------------------------------|



e|------|POST CHORUS|----------------------------------------------------------|
B|-----------------------------------------------------------------------------|
G|--9-9---7-7---5-5------------------------------------------------------------|
D|--9-9---7-7---5-5---7-7------------------------------------------------------|
A|--7-7---5-5---3-3---7-7--3-2-------------------------------------------------|
E|--------------------5-5------------------------------------------------------|


e|----------| POST SOLO TYPE THING-Y |---------------------------------------|
B|---------------------------------------------------------------------------|
G|--9-9-9-9-9-9-9-9--7-7-7-7-7-7-7-7-—5-5-5-5-5-5-5-5------------------------|
D|--9-9-9-9-9-9-9-9--7-7-7-7-7-7-7-7—-5-5-5-5-5-5-5-5—-7-7-7-7-7-7-7-7-------|
A|--7-7-7-7-7-7-7-7—-5-5-5-5-5-5-5-5--3-3-3-3-3-3-3-3—-7-7-7-7-7-7-7-7--3-2--|
E|-----------------------------------------------------5-5-5-5-5-5-5-5-------|
P.M………………………………………………………………………………………………………………………………………………………………………………………


I don’t have the solo, but you can probably improvise one yourself.


************************************

| /   slide up
| \   slide down
| h   hammer-on
| p   pull-off
| ~   vibrato
| +   harmonic
| x   Mute note
| b   Bend
| pb  Pre-bend
| br  Bend release
| pbr Pre-bend release
| brb Bend release bend

************************************
            
Submit corrections

comments powered by Disqus
↑ Back to top | I Voted For Kodos Tabs for Where Are We Going To. Lyrics for acoustic guitar and electric guitar. Tablatures and chords are parodies/interpretations of the original songs. You may use it for private study, scholarship, research or language learning purposes only