» » »

I Voted For Kodos, Radio Love Song Tabs (ver.1)

Artists:  A B C D E F G H I J K L M N O P Q R S T U V W X Y Z # 

Radio Love Song Tabs (ver.1)

I Voted For Kodos Tabs
 Rating:
4/5 (4 votes)
Radio Love Song lessons Tabs too difficult? Try these video lessons and learn fast
                


About time for another Kodos tune. Enjoy.



Intro/Post-Chorus
e|-----------------------------------|
B|-----------------------------------|
G|----------77-xx-x---------77-xx-x--|
D|--77-xx-x-77-xx-x-44-xx-x-77-xx-x--|
A|--77-xx-x-55-xx-x-44-xx-x-55-xx-x--|
E|--55-xx-x---------22-xx-x----------|


Verse
e|------------------|----------------------|
B|------------------|----------------------|
G|------77------77--|--------77--99999999--|
D|--77--77--44--77--|----77--77--99999999--|
A|--77--55--44--55--|----77--55--77777777--|
E|--55------22------|x3--55----------------|


Chorus
(Strumming not shown)
e|-------------------------|
B|-------------------------|
G|--------7--x-------7--x--|
D|--7--x--7--x--4--x-7--x--|
A|--7--x--5--x--4--x-5--x--|
E|--5--x--------2--x-------|



2nd Post-Chorus
Guitar 2
e|--------------------|
B|--------------------|
G|--9999--9999--9999--|
D|--xxxx--xxxx--xxxx--|
A|--7777--7777--7777--|
E|--------------------|


End On:
e|--------------|
B|--------------|
G|----------77--|
D|--77-xx-x-77--|
A|--77-xx-x-55--|
E|--55-xx-x-----|
            
Submit corrections

comments powered by Disqus
↑ Back to top | I Voted For Kodos Tabs for Radio Love Song. Lyrics for acoustic guitar and electric guitar. Tablatures and chords are parodies/interpretations of the original songs. You may use it for private study, scholarship, research or language learning purposes only