» » »

Never Go Home Tabs (ver.1)

Artists:  A B C D E F G H I J K L M N O P Q R S T U V W X Y Z # 

Never Go Home Tabs (ver.1)

I Voted For Kodos
Rating:
5/5 (1 vote)

Hard to play? Try these video lessons and learn fast.
                
8/6/06


One of my favorites of theirs. Pretty easy.


Intro

  P.M.
e|----------------------------------------------------------------------|
B|----------------------------------------------------------------------|
G|-----------99-77-11-11-11-11---77-11-11-99----------99-77-11-11-11-11-|
D|--777---77-99-77-11-11-11-11---77-11-11-99-7777--77-99-77-11-11-11-11-|
A|--777---77-77-55-9--9--9--9----55-9--9--77-7777--77-77-55-9--9--9--9--|
E|--555---55---------------------------------5555--55-------------------|
    ...   .. .. .. .  .  .  .    .. .  .  .. ....  .. .. .. .  .  .  .


  Clean
e|---------------|
B|---------------|
G|--77-11-11-99--|
D|--77-11-11-99--|
A|--55-9--9--77--|
E|---------------|


Chorus
(Also played right before Verse 1)

Find strumming for yourself.

e|---------------|
B|---------------|
G|----9--11-7-9--|
D|--7-9--11-7-9--|
A|--7-7--9--5-7--|
E|--5------------|x2


Transition Into Chorus

  "You'll look back."
e|----------------|
B|----------------|
G|--77-11--11-11--|
D|--77-11--11-11--|
A|--55-9---9--9---|
E|----------------|


Bridge

e|------------------------------------------|
B|------------------------------------------|
G|--66-77-99-11-11-xxx--2-2-22--44-44-44-4--|
D|--66-77-99-11-11-xxx--2-2-22--44-44-44-4--|
A|--44-55-77-9--9--xxx--0-0-00--22-22-22-2--|
E|------------------------------------------|


End With:

e|--------------------------|
B|--------------------------|
G|--66-77-99-11-11-xxx-2~~--|
D|--66-77-99-11-11-xxx-2~~--|
A|--44-55-77-9--9--xxx-0~~--|
E|--------------------------|
            
Hard to play? Try these video lessons and learn fast. | Correct




comments powered by Disqus
↑ Back to top | Tablatures and chords are parodies/interpretations of the original songs. You may use it for private study, scholarship, research or language learning purposes only