» » »

Going Down Tabs (ver.1)

Artists:  A B C D E F G H I J K L M N O P Q R S T U V W X Y Z # 

Going Down Tabs (ver.1)

I Voted For Kodos
Rating:
0/5 (0 votes)

Hard to play? Try these video lessons and learn fast.
                
8/3/06


I love these guys, and this song.

I'm not 100% sure on the intro riff for Guitar 1. But it's as close as I could get.


Intro/Post-Chorus


Guitar 1
e|-----------------------------------------------7--------------|
B|--------10-------------10----------10-----------10----10------|
G|---7--7----7-7----7--7----7----7-7---7-7---7-7----9-7---9-7---|
D|--9--9------9----9--9------9--9-9-----9---9-9--------------9--|
A|--------------------------------------------------------------|
E|--------------------------------------------------------------|x2 (Start after guitar 
plays part twice)


Guitar 2
e|------------------|
B|------------------|
G|--44------77------|
D|--44--55--77--77--|
A|--22--55--55--77--|
E|------33------55--|x4


Verse


Guitar 2              P.M.
e|------------------|------------------------|
B|------------------|------------------------|
G|--44------77------|----4---------7---------|
D|--44--55--77--77--|----4----5----7----7----|
A|--22--55--55--77--|----2----5----5x8--7----|
E|------33------55--|x2---x8--3x8-------5x8--|x2


Chorus


e|--------------------------|
B|--------------------------|
G|--4-44--------7-77--------|
D|--4-44--5-55--7-77--7-77--|
A|--2-22--5-55--5-55--7-77--|
E|--------3-33--------5-55--|


Order:
Intro/Post-Chorus
Verse
Chorus
Intro/Post-Chorus
Verse
Chorus
Intro/Post-Chorus (Just Guitar 1 and palm mute.)
Verse
Chorus
Intro/Post Chorus (Repeat until end. Ends with just Guitar 1.)
            
Hard to play? Try these video lessons and learn fast. | Correct




comments powered by Disqus
↑ Back to top | Tablatures and chords are parodies/interpretations of the original songs. You may use it for private study, scholarship, research or language learning purposes only