» » »

Ivoryline, The Last Words Tabs (ver.1)

Artists:  A B C D E F G H I J K L M N O P Q R S T U V W X Y Z # 

The Last Words Tabs (ver.1)

Ivoryline Tabs
 Rating:
4.3/5 (6 votes)
The Last Words lessons Tabs too difficult? Try these video lessons and learn fast
                -------------------------------------------------------------------------------
-------------------------------------------------------------------------------

Tuning: Standard

Verse 1: (0:00) 				                   End after 3x
e|----------------------------------------------------------------|------------|
B|---9---9---9-------5---4---4-------9---9---9-------2---4---4----|/12-12-10-9-|
G|-9---9---9---9---2---2---2---2---9---9---9---9---1---2---2---2--|------------|
D|7---------------4---------------7---------------2---------------|------------|
A|----------------------------------------------------------------|------------|
E|----------------------------------------------------------------|------------|


Prechorus: (0:36)
e|----------------------------------|
B|----------------------------------|
G|6-------8-------9-------11--------|
D|x-(16x)-x-(16x)-x-(16x)-x--(16x)--|
A|4-------6-------7-------9---------|
E|----------------------------------|


Chorus: (0:49)  
e|---------------------------------------------------------------------------|
B|---------------------------------------------------------------------------|
G|6-6-6-6-6-6-6-6-6-6-6-6-6-6-6-6-6-6-6-6-8-8-9-9-8-8-8-8-9-9-11-11-----(2x)-|
D|-6-6-6-6-6-6-6-6-7-7-7-7-7-7-6-6-7-7-7-7-7-7-7-7/9-9-9-9-9-9--9--9---------|
A|---------------------------------------------------------------------------|
E|---------------------------------------------------------------------------|


Bridge Lead-in: (2:24)
e|16--16--16--16--19--19--17--17--16--16--16--16--19--19--19--19-------------|
B|--17--17--17--17--17--17--17--17--17--17--17--17--17--17--17--17-----------|
G|---------------------------------------------------------------------------|
D|---------------------------------------------------------------------------|
A|---------------------------------------------------------------------------|
E|---------------------------------------------------------------------------|


Bridge: (2:36) 					  	Chords: C#m F#m A B
e|-----19-----19-16---14-16-------14-----14-11-11-11h12p11-------------------|
B|17-17--17-17---------------12-12--12-12-----------------h14----------------|
G|---------------------------------------------------------------------------|
D|---------------------------------------------------------------------------|
A|---------------------------------------------------------------------------|
E|---------------------------------------------------------------------------|

Bridge continued:
e|---------------------------------------------------------------------------|
B|-----16-----16--17-----17-19-(13x)-----------------------------------------|
G|14-14--14-14--14----14-----------------------------------------------------|
D|---------------------------------------------------------------------------|
A|---------------------------------------------------------------------------|
E|---------------------------------------------------------------------------|


| /  slide up
| \  slide down
| h  hammer-on
| p  pull-off
| ~  vibrato
| +  harmonic
| x  Mute note
===============================================================================
            
Submit corrections

comments powered by Disqus
↑ Back to top | Ivoryline Tabs for The Last Words. Lyrics for acoustic guitar and electric guitar. Tablatures and chords are parodies/interpretations of the original songs. You may use it for private study, scholarship, research or language learning purposes only